999
dxflib 2.2.0.0
  0
SECTION
  2
HEADER
  9
$ACADVER
  1
AC1015
  9
$HANDSEED
  5
FFFF
  9
$DIMASZ
 40
2.5
  9
$DIMGAP
 40
0.625
  9
$INSUNITS
 70
4
  9
$DIMEXO
 40
0.625
  9
$DIMTXT
 40
2.5
  9
$DIMSTYLE
  2
Standard
  9
$PLIMMIN
 10
0.0
 20
0.0
  9
$PLIMMAX
 10
210.0
 20
297.0
  9
$DIMEXE
 40
1.25
  0
ENDSEC
  0
SECTION
  2
TABLES
  0
TABLE
  2
VPORT
  5
8
100
AcDbSymbolTable
 70
1
  0
VPORT
  5
30
100
AcDbSymbolTableRecord
100
AcDbViewportTableRecord
  2
*Active
 70
0
 10
0.0
 20
0.0
 11
1.0
 21
1.0
 12
286.3055555555554861
 22
148.5
 13
0.0
 23
0.0
 14
10.0
 24
10.0
 15
10.0
 25
10.0
 16
0.0
 26
0.0
 36
1.0
 17
0.0
 27
0.0
 37
0.0
 40
297.0
 41
1.92798353909465
 42
50.0
 43
0.0
 44
0.0
 50
0.0
 51
0.0
 71
0
 72
100
 73
1
 74
3
 75
1
 76
1
 77
0
 78
0
281
0
 65
1
110
0.0
120
0.0
130
0.0
111
1.0
121
0.0
131
0.0
112
0.0
122
1.0
132
0.0
 79
0
146
0.0
  0
ENDTAB
  0
TABLE
  2
LTYPE
  5
5
100
AcDbSymbolTable
 70
21
  0
LTYPE
  5
14
100
AcDbSymbolTableRecord
100
AcDbLinetypeTableRecord
  2
ByBlock
 70
0
  3

 72
65
 73
0
 40
0.0
  0
LTYPE
  5
15
100
AcDbSymbolTableRecord
100
AcDbLinetypeTableRecord
  2
ByLayer
 70
0
  3

 72
65
 73
0
 40
0.0
  0
LTYPE
  5
16
100
AcDbSymbolTableRecord
100
AcDbLinetypeTableRecord
  2
CONTINUOUS
 70
0
  3
Solid line
 72
65
 73
0
 40
0.0
  0
LTYPE
  5
31
100
AcDbSymbolTableRecord
100
AcDbLinetypeTableRecord
  2
DOT
 70
0
  3
Dot . . . . . . . . . . . . . . . . . . . . . .
 72
65
 73
2
 40
6.3499999999999996
 49
0.0
 74
0
 49
-6.3499999999999996
 74
0
  0
LTYPE
  5
32
100
AcDbSymbolTableRecord
100
AcDbLinetypeTableRecord
  2
DOT2
 70
0
  3
Dot (.5x) .....................................
 72
65
 73
2
 40
3.1749999999999998
 49
0.0
 74
0
 49
-3.1749999999999998
 74
0
  0
LTYPE
  5
33
100
AcDbSymbolTableRecord
100
AcDbLinetypeTableRecord
  2
DOTX2
 70
0
  3
Dot (2x) .  .  .  .  .  .  .  .  .  .  .  .  .
 72
65
 73
2
 40
12.6999999999999993
 49
0.0
 74
0
 49
-12.6999999999999993
 74
0
  0
LTYPE
  5
34
100
AcDbSymbolTableRecord
100
AcDbLinetypeTableRecord
  2
DASHED
 70
0
  3
Dashed __ __ __ __ __ __ __ __ __ __ __ __ __ _
 72
65
 73
2
 40
19.0500000000000007
 49
12.6999999999999993
 74
0
 49
-6.3499999999999996
 74
0
  0
LTYPE
  5
35
100
AcDbSymbolTableRecord
100
AcDbLinetypeTableRecord
  2
DASHED2
 70
0
  3
Dashed (.5x) _ _ _ _ _ _ _ _ _ _ _ _ _ _ _ _ _
 72
65
 73
2
 40
9.5250000000000004
 49
6.3499999999999996
 74
0
 49
-3.1749999999999998
 74
0
  0
LTYPE
  5
36
100
AcDbSymbolTableRecord
100
AcDbLinetypeTableRecord
  2
DASHEDX2
 70
0
  3
Dashed (2x) ____  ____  ____  ____  ____  ___
 72
65
 73
2
 40
38.1000000000000014
 49
25.3999999999999986
 74
0
 49
-12.6999999999999993
 74
0
  0
LTYPE
  5
37
100
AcDbSymbolTableRecord
100
AcDbLinetypeTableRecord
  2
DASHDOT
 70
0
  3
Dash dot __ . __ . __ . __ . __ . __ . __ . __
 72
65
 73
4
 40
25.3999999999999986
 49
12.6999999999999993
 74
0
 49
-6.3499999999999996
 74
0
 49
0.0
 74
0
 49
-6.3499999999999996
 74
0
  0
LTYPE
  5
38
100
AcDbSymbolTableRecord
100
AcDbLinetypeTableRecord
  2
DASHDOT2
 70
0
  3
Dash dot (.5x) _._._._._._._._._._._._._._._.
 72
65
 73
4
 40
12.6999999999999993
 49
6.3499999999999996
 74
0
 49
-3.1749999999999998
 74
0
 49
0.0
 74
0
 49
-3.1749999999999998
 74
0
  0
LTYPE
  5
39
100
AcDbSymbolTableRecord
100
AcDbLinetypeTableRecord
  2
DASHDOTX2
 70
0
  3
Dash dot (2x) ____  .  ____  .  ____  .  ___
 72
65
 73
4
 40
50.7999999999999972
 49
25.3999999999999986
 74
0
 49
-12.6999999999999993
 74
0
 49
0.0
 74
0
 49
-12.6999999999999993
 74
0
  0
LTYPE
  5
3A
100
AcDbSymbolTableRecord
100
AcDbLinetypeTableRecord
  2
DIVIDE
 70
0
  3
Divide ____ . . ____ . . ____ . . ____ . . ____
 72
65
 73
6
 40
31.75
 49
12.6999999999999993
 74
0
 49
-6.3499999999999996
 74
0
 49
0.0
 74
0
 49
-6.3499999999999996
 74
0
 49
0.0
 74
0
 49
-6.3499999999999996
 74
0
  0
LTYPE
  5
3B
100
AcDbSymbolTableRecord
100
AcDbLinetypeTableRecord
  2
DIVIDE2
 70
0
  3
Divide (.5x) __..__..__..__..__..__..__..__.._
 72
65
 73
6
 40
15.875
 49
6.3499999999999996
 74
0
 49
-3.1749999999999998
 74
0
 49
0.0
 74
0
 49
-3.1749999999999998
 74
0
 49
0.0
 74
0
 49
-3.1749999999999998
 74
0
  0
LTYPE
  5
3C
100
AcDbSymbolTableRecord
100
AcDbLinetypeTableRecord
  2
DIVIDEX2
 70
0
  3
Divide (2x) ________  .  .  ________  .  .  _
 72
65
 73
6
 40
63.5
 49
25.3999999999999986
 74
0
 49
-12.6999999999999993
 74
0
 49
0.0
 74
0
 49
-12.6999999999999993
 74
0
 49
0.0
 74
0
 49
-12.6999999999999993
 74
0
  0
LTYPE
  5
3D
100
AcDbSymbolTableRecord
100
AcDbLinetypeTableRecord
  2
CENTER
 70
0
  3
Center ____ _ ____ _ ____ _ ____ _ ____ _ ____
 72
65
 73
4
 40
50.7999999999999972
 49
31.75
 74
0
 49
-6.3499999999999996
 74
0
 49
6.3499999999999996
 74
0
 49
-6.3499999999999996
 74
0
  0
LTYPE
  5
3E
100
AcDbSymbolTableRecord
100
AcDbLinetypeTableRecord
  2
CENTER2
 70
0
  3
Center (.5x) ___ _ ___ _ ___ _ ___ _ ___ _ ___
 72
65
 73
4
 40
28.5749999999999993
 49
19.0500000000000007
 74
0
 49
-3.1749999999999998
 74
0
 49
3.1749999999999998
 74
0
 49
-3.1749999999999998
 74
0
  0
LTYPE
  5
3F
100
AcDbSymbolTableRecord
100
AcDbLinetypeTableRecord
  2
CENTERX2
 70
0
  3
Center (2x) ________  __  ________  __  _____
 72
65
 73
4
 40
101.5999999999999943
 49
63.5
 74
0
 49
-12.6999999999999993
 74
0
 49
12.6999999999999993
 74
0
 49
-12.6999999999999993
 74
0
  0
LTYPE
  5
40
100
AcDbSymbolTableRecord
100
AcDbLinetypeTableRecord
  2
BORDER
 70
0
  3
Border __ __ . __ __ . __ __ . __ __ . __ __ .
 72
65
 73
6
 40
44.4500000000000028
 49
12.6999999999999993
 74
0
 49
-6.3499999999999996
 74
0
 49
12.6999999999999993
 74
0
 49
-6.3499999999999996
 74
0
 49
0.0
 74
0
 49
-6.3499999999999996
 74
0
  0
LTYPE
  5
41
100
AcDbSymbolTableRecord
100
AcDbLinetypeTableRecord
  2
BORDER2
 70
0
  3
Border (.5x) __.__.__.__.__.__.__.__.__.__.__.
 72
65
 73
6
 40
22.2250000000000014
 49
6.3499999999999996
 74
0
 49
-3.1749999999999998
 74
0
 49
6.3499999999999996
 74
0
 49
-3.1749999999999998
 74
0
 49
0.0
 74
0
 49
-3.1749999999999998
 74
0
  0
LTYPE
  5
42
100
AcDbSymbolTableRecord
100
AcDbLinetypeTableRecord
  2
BORDERX2
 70
0
  3
Border (2x) ____  ____  .  ____  ____  .  ___
 72
65
 73
6
 40
88.9000000000000057
 49
25.3999999999999986
 74
0
 49
-12.6999999999999993
 74
0
 49
25.3999999999999986
 74
0
 49
-12.6999999999999993
 74
0
 49
0.0
 74
0
 49
-12.6999999999999993
 74
0
  0
ENDTAB
  0
TABLE
  2
LAYER
  5
2
100
AcDbSymbolTable
 70
14
  0
LAYER
  5
10
100
AcDbSymbolTableRecord
100
AcDbLayerTableRecord
  2
0
 70
0
 62
7
  6
CONTINUOUS
370
0
390
F
  0
LAYER
  5
43
100
AcDbSymbolTableRecord
100
AcDbLayerTableRecord
  2
servo
 70
0
 62
7
  6
CONTINUOUS
370
0
390
F
  0
LAYER
  5
44
100
AcDbSymbolTableRecord
100
AcDbLayerTableRecord
  2
MicroSwitch
 70
0
 62
7
  6
CONTINUOUS
370
0
390
F
  0
LAYER
  5
45
100
AcDbSymbolTableRecord
100
AcDbLayerTableRecord
  2
arm
 70
0
 62
5
  6
CONTINUOUS
370
0
390
F
  0
LAYER
  5
46
100
AcDbSymbolTableRecord
100
AcDbLayerTableRecord
  2
DPDT
 70
0
 62
1
  6
CONTINUOUS
370
0
390
F
  0
LAYER
  5
47
100
AcDbSymbolTableRecord
100
AcDbLayerTableRecord
  2
arm down
 70
0
 62
171
  6
CONTINUOUS
370
0
390
F
  0
LAYER
  5
48
100
AcDbSymbolTableRecord
100
AcDbLayerTableRecord
  2
battery
 70
0
 62
7
  6
CONTINUOUS
370
0
390
F
  0
LAYER
  5
49
100
AcDbSymbolTableRecord
100
AcDbLayerTableRecord
  2
microswitch support
 70
0
 62
7
  6
CONTINUOUS
370
0
390
F
  0
LAYER
  5
4A
100
AcDbSymbolTableRecord
100
AcDbLayerTableRecord
  2
servo Support
 70
0
 62
7
  6
CONTINUOUS
370
0
390
F
  0
LAYER
  5
4B
100
AcDbSymbolTableRecord
100
AcDbLayerTableRecord
  2
leftside
 70
0
 62
7
  6
CONTINUOUS
370
0
390
F
  0
LAYER
  5
4C
100
AcDbSymbolTableRecord
100
AcDbLayerTableRecord
  2
Right Side
 70
0
 62
7
  6
CONTINUOUS
370
0
390
F
  0
LAYER
  5
4D
100
AcDbSymbolTableRecord
100
AcDbLayerTableRecord
  2
Bottom
 70
0
 62
7
  6
CONTINUOUS
370
0
390
F
  0
LAYER
  5
4E
100
AcDbSymbolTableRecord
100
AcDbLayerTableRecord
  2
Side
 70
0
 62
7
  6
CONTINUOUS
370
0
390
F
  0
LAYER
  5
4F
100
AcDbSymbolTableRecord
100
AcDbLayerTableRecord
  2
Top
 70
0
 62
7
  6
CONTINUOUS
370
0
390
F
  0
ENDTAB
  0
TABLE
  2
STYLE
  5
3
100
AcDbSymbolTable
 70
1
  0
STYLE
  5
11
100
AcDbSymbolTableRecord
100
AcDbTextStyleTableRecord
  2
Standard
 70
0
 40
0.0
 41
0.75
 50
0.0
 71
0
 42
2.5
  3
txt
  4

  0
ENDTAB
  0
TABLE
  2
VIEW
  5
6
100
AcDbSymbolTable
 70
0
  0
ENDTAB
  0
TABLE
  2
UCS
  5
7
100
AcDbSymbolTable
 70
0
  0
ENDTAB
  0
TABLE
  2
APPID
  5
9
100
AcDbSymbolTable
 70
1
  0
APPID
  5
12
100
AcDbSymbolTableRecord
100
AcDbRegAppTableRecord
  2
ACAD
 70
0
  0
ENDTAB
  0
TABLE
  2
DIMSTYLE
  5
A
100
AcDbSymbolTable
 70
1
100
AcDbDimStyleTable
 71
0
  0
DIMSTYLE
105
27
100
AcDbSymbolTableRecord
100
AcDbDimStyleTableRecord
  2
Standard
 41
2.5
 42
0.625
 43
3.75
 44
1.25
 70
0
 73
0
 74
0
 77
1
 78
8
140
2.5
141
2.5
143
0.03937007874016
147
0.625
171
3
172
1
271
2
272
2
274
3
278
44
283
0
284
8
340
11
  0
ENDTAB
  0
TABLE
  2
BLOCK_RECORD
  5
1
100
AcDbSymbolTable
 70
1
  0
BLOCK_RECORD
  5
1F
100
AcDbSymbolTableRecord
100
AcDbBlockTableRecord
  2
*Model_Space
340
22
  0
BLOCK_RECORD
  5
1B
100
AcDbSymbolTableRecord
100
AcDbBlockTableRecord
  2
*Paper_Space
340
1E
  0
BLOCK_RECORD
  5
23
100
AcDbSymbolTableRecord
100
AcDbBlockTableRecord
  2
*Paper_Space0
340
26
  0
ENDTAB
  0
ENDSEC
  0
SECTION
  2
BLOCKS
  0
BLOCK
  5
20
100
AcDbEntity
  8
0
100
AcDbBlockBegin
  2
*Model_Space
 70
0
 10
0.0
 20
0.0
 30
0.0
  3
*Model_Space
  1

  0
ENDBLK
  5
21
100
AcDbEntity
  8
0
100
AcDbBlockEnd
  0
BLOCK
  5
1C
100
AcDbEntity
 67
1
  8
0
100
AcDbBlockBegin
  2
*Paper_Space
 70
0
 10
0.0
 20
0.0
 30
0.0
  3
*Paper_Space
  1

  0
ENDBLK
  5
1D
100
AcDbEntity
 67
1
  8
0
100
AcDbBlockEnd
  0
BLOCK
  5
24
100
AcDbEntity
  8
0
100
AcDbBlockBegin
  2
*Paper_Space0
 70
0
 10
0.0
 20
0.0
 30
0.0
  3
*Paper_Space0
  1

  0
ENDBLK
  5
25
100
AcDbEntity
  8
0
100
AcDbBlockEnd
  0
ENDSEC
  0
SECTION
  2
ENTITIES
  0
LINE
  5
50
100
AcDbEntity
100
AcDbLine
  8
servo
 62
256
370
-1
  6
ByLayer
 10
16.8755200000000087
 20
20.0
 30
0.0
 11
16.8755200000000087
 21
0.0
 31
0.0
  0
CIRCLE
  5
51
100
AcDbEntity
100
AcDbCircle
  8
servo
 62
256
370
-1
  6
ByLayer
 10
26.8755200000000087
 20
9.9999999999999964
 30
0.0
 40
3.0
  0
LINE
  5
52
100
AcDbEntity
100
AcDbLine
  8
servo
 62
256
370
-1
  6
ByLayer
 10
16.8755200000000087
 20
20.0
 30
0.0
 11
57.3755200000000087
 21
20.0
 31
0.0
  0
LINE
  5
53
100
AcDbEntity
100
AcDbLine
  8
servo
 62
256
370
-1
  6
ByLayer
 10
16.8755200000000087
 20
0.0
 30
0.0
 11
57.3755200000000087
 21
0.0
 31
0.0
  0
LINE
  5
54
100
AcDbEntity
100
AcDbLine
  8
servo
 62
256
370
-1
  6
ByLayer
 10
57.3755200000000087
 20
20.0
 30
0.0
 11
57.3755200000000087
 21
0.0
 31
0.0
  0
LINE
  5
55
100
AcDbEntity
100
AcDbLine
  8
servo
 62
256
370
-1
  6
ByLayer
 10
9.3755200000000087
 20
19.0000000000000036
 30
0.0
 11
16.8755200000000087
 21
19.0
 31
0.0
  0
LINE
  5
56
100
AcDbEntity
100
AcDbLine
  8
servo
 62
256
370
-1
  6
ByLayer
 10
16.8755200000000087
 20
1.0
 30
0.0
 11
9.3755200000000087
 21
1.0000000000000027
 31
0.0
  0
LINE
  5
57
100
AcDbEntity
100
AcDbLine
  8
servo
 62
256
370
-1
  6
ByLayer
 10
9.3755200000000087
 20
19.0000000000000036
 30
0.0
 11
9.3755200000000087
 21
1.0000000000000027
 31
0.0
  0
LINE
  5
58
100
AcDbEntity
100
AcDbLine
  8
servo
 62
256
370
-1
  6
ByLayer
 10
64.8755200000000087
 20
0.9999999999999982
 30
0.0
 11
57.3755200000000087
 21
1.0
 31
0.0
  0
LINE
  5
59
100
AcDbEntity
100
AcDbLine
  8
servo
 62
256
370
-1
  6
ByLayer
 10
64.8755200000000087
 20
18.9999999999999964
 30
0.0
 11
64.8755200000000087
 21
0.9999999999999982
 31
0.0
  0
LINE
  5
5A
100
AcDbEntity
100
AcDbLine
  8
servo
 62
256
370
-1
  6
ByLayer
 10
57.3755200000000087
 20
19.0
 30
0.0
 11
64.8755200000000087
 21
18.9999999999999964
 31
0.0
  0
CIRCLE
  5
5B
100
AcDbEntity
100
AcDbCircle
  8
servo
 62
256
370
-1
  6
ByLayer
 10
11.6255200000000087
 20
15.0000000000000036
 30
0.0
 40
2.25
  0
CIRCLE
  5
5C
100
AcDbEntity
100
AcDbCircle
  8
servo
 62
256
370
-1
  6
ByLayer
 10
11.6255200000000087
 20
5.0000000000000036
 30
0.0
 40
2.25
  0
CIRCLE
  5
5D
100
AcDbEntity
100
AcDbCircle
  8
servo
 62
256
370
-1
  6
ByLayer
 10
62.6255200000000016
 20
5.0000000000000036
 30
0.0
 40
2.25
  0
CIRCLE
  5
5E
100
AcDbEntity
100
AcDbCircle
  8
servo
 62
256
370
-1
  6
ByLayer
 10
62.6255200000000016
 20
15.0000000000000036
 30
0.0
 40
2.25
  0
LINE
  5
5F
100
AcDbEntity
100
AcDbLine
  8
DPDT
 62
256
370
-1
  6
ByLayer
 10
19.3755200000000087
 20
21.3000000000000007
 30
0.0
 11
34.3755200000000087
 21
21.3000000000000007
 31
0.0
  0
LINE
  5
60
100
AcDbEntity
100
AcDbLine
  8
DPDT
 62
256
370
-1
  6
ByLayer
 10
26.8755200000000123
 20
44.0
 30
0.0
 11
23.978462232119977
 21
54.6116471996371047
 31
0.0
  0
LINE
  5
61
100
AcDbEntity
100
AcDbLine
  8
DPDT
 62
256
370
-1
  6
ByLayer
 10
26.8755200000000123
 20
44.0
 30
0.0
 11
29.7113961392151467
 21
54.6281610132247337
 31
0.0
  0
LINE
  5
62
100
AcDbEntity
100
AcDbLine
  8
DPDT
 62
256
370
-1
  6
ByLayer
 10
19.3755200000000087
 20
21.3000000000000007
 30
0.0
 11
19.3755200000000087
 21
35.0
 31
0.0
  0
LINE
  5
63
100
AcDbEntity
100
AcDbLine
  8
DPDT
 62
256
370
-1
  6
ByLayer
 10
34.3755200000000087
 20
21.3000000000000007
 30
0.0
 11
34.3755200000000087
 21
35.0
 31
0.0
  0
LINE
  5
64
100
AcDbEntity
100
AcDbLine
  8
DPDT
 62
256
370
-1
  6
ByLayer
 10
23.8755200000000123
 20
44.0
 30
0.0
 11
29.8755200000000123
 21
44.0
 31
0.0
  0
LINE
  5
65
100
AcDbEntity
100
AcDbLine
  8
DPDT
 62
256
370
-1
  6
ByLayer
 10
26.8755200000000123
 20
44.0
 30
0.0
 11
29.8755200000000123
 21
44.0
 31
0.0
  0
ARC
  5
66
100
AcDbEntity
  8
arm
 62
256
370
-1
  6
ByLayer
100
AcDbCircle
 10
31.8666872778570642
 20
51.7808862270486614
 30
0.0
 40
5.000000000000016
100
AcDbArc
 50
83.1876937148812914
 51
263.1877023539303764
  0
ARC
  5
67
100
AcDbEntity
  8
arm
 62
256
370
-1
  6
ByLayer
100
AcDbCircle
 10
26.8755200000000087
 20
9.9999999999999964
 30
0.0
 40
37.0779539035958337
100
AcDbArc
 50
40.3563726573640835
 51
83.1876979552301492
  0
ARC
  5
68
100
AcDbEntity
  8
arm
 62
256
370
-1
  6
ByLayer
100
AcDbCircle
 10
52.8439974530095213
 20
32.0668330538874358
 30
0.0
 40
3.0
100
AcDbArc
 50
296.7791395789495823
 51
40.3563726573641546
  0
ARC
  5
69
100
AcDbEntity
  8
arm
 62
256
370
-1
  6
ByLayer
100
AcDbCircle
 10
26.8755200000000087
 20
9.9999999999999964
 30
0.0
 40
47.0779539035958337
100
AcDbArc
 50
40.3563726573640622
 51
83.1876979720481557
  0
ARC
  5
6A
100
AcDbEntity
  8
arm
 62
256
370
-1
  6
ByLayer
100
AcDbCircle
 10
52.8439974530095213
 20
32.0668330538874358
 30
0.0
 40
13.0
100
AcDbArc
 50
296.7791395789496391
 51
40.3563726573640622
  0
CIRCLE
  5
6B
100
AcDbEntity
100
AcDbCircle
  8
arm
 62
256
370
-1
  6
ByLayer
 10
33.5711443711323199
 20
13.3791440159749158
 30
0.0
 40
1.0
  0
CIRCLE
  5
6C
100
AcDbEntity
100
AcDbCircle
  8
arm
 62
256
370
-1
  6
ByLayer
 10
38.9276438680381673
 20
16.0824592287548498
 30
0.0
 40
1.0
  0
LINE
  5
6D
100
AcDbEntity
100
AcDbLine
  8
arm
 62
256
370
-1
  6
ByLayer
 10
30.2690035546062362
 20
17.3132940160106372
 30
0.0
 11
54.1956550593994848
 21
29.388583305434512
 31
0.0
  0
ARC
  5
6E
100
AcDbEntity
  8
arm
 62
256
370
-1
  6
ByLayer
100
AcDbCircle
 10
31.1701086255328796
 20
15.527794183708691
 30
0.0
 40
2.0
100
AcDbArc
 50
116.7791395789496676
 51
232.1560715612747856
  0
LINE
  5
6F
100
AcDbEntity
100
AcDbLine
  8
arm
 62
256
370
-1
  6
ByLayer
 10
34.7745289092394643
 20
8.3857948545008973
 30
0.0
 11
58.7011804140327129
 21
20.4610841439247686
 31
0.0
  0
ARC
  5
70
100
AcDbEntity
  8
arm
 62
5
370
0
  6
CONTINUOUS
100
AcDbCircle
 10
26.8755200000000087
 20
9.9999999999999964
 30
0.0
 40
5.0
100
AcDbArc
 50
1.4022060537972874
 51
52.1560737212328647
  0
ARC
  5
71
100
AcDbEntity
  8
arm
 62
256
370
-1
  6
ByLayer
100
AcDbCircle
 10
33.8734238383128172
 20
10.1712946868028435
 30
0.0
 40
2.0
100
AcDbArc
 50
181.4022060537975278
 51
296.7791395789497528
  0
ARC
  5
72
100
AcDbEntity
  8
arm down
 62
256
370
-1
  6
ByLayer
100
AcDbCircle
 10
66.8512209758915503
 20
23.1338317409368628
 30
0.0
 40
5.000000000000016
100
AcDbArc
 50
18.1876937148812949
 51
198.1877023539304048
  0
ARC
  5
73
100
AcDbEntity
  8
arm down
 62
256
370
-1
  6
ByLayer
100
AcDbCircle
 10
26.8755200000000087
 20
9.9999999999999964
 30
0.0
 40
37.0779539035958337
100
AcDbArc
 50
335.3563726573640906
 51
18.1876979552301528
  0
ARC
  5
74
100
AcDbEntity
  8
arm down
 62
256
370
-1
  6
ByLayer
100
AcDbCircle
 10
57.8496154332193555
 20
-4.2095867057920788
 30
0.0
 40
3.0
100
AcDbArc
 50
231.7791395789496107
 51
335.3563726573641475
  0
ARC
  5
75
100
AcDbEntity
  8
arm down
 62
256
370
-1
  6
ByLayer
100
AcDbCircle
 10
26.8755200000000087
 20
9.9999999999999964
 30
0.0
 40
47.0779539035958337
100
AcDbArc
 50
335.3563726573640338
 51
18.1876979720481522
  0
ARC
  5
76
100
AcDbEntity
  8
arm down
 62
256
370
-1
  6
ByLayer
100
AcDbCircle
 10
57.8496154332193555
 20
-4.2095867057920788
 30
0.0
 40
13.0
100
AcDbArc
 50
231.7791395789496676
 51
335.3563726573640338
  0
CIRCLE
  5
77
100
AcDbEntity
100
AcDbCircle
  8
arm down
 62
256
370
-1
  6
ByLayer
 10
32.7677576681929565
 20
5.3597914635732185
 30
0.0
 40
1.0
  0
CIRCLE
  5
78
100
AcDbEntity
100
AcDbCircle
  8
arm down
 62
256
370
-1
  6
ByLayer
 10
37.4815478027473574
 20
1.6476246344318035
 30
0.0
 40
1.0
  0
LINE
  5
79
100
AcDbEntity
100
AcDbLine
  8
arm down
 62
256
370
-1
  6
ByLayer
 10
34.9377634366923218
 20
10.0151910339246424
 30
0.0
 11
55.9935320186486365
 21
-6.5664817730692917
 31
0.0
  0
ARC
  5
7A
100
AcDbEntity
  8
arm down
 62
256
370
-1
  6
ByLayer
100
AcDbCircle
 10
33.7003744936451852
 20
8.4439276557398486
 30
0.0
 40
2.0
100
AcDbArc
 50
51.7791395789496747
 51
167.156071561274814
  0
LINE
  5
7B
100
AcDbEntity
100
AcDbLine
  8
arm down
 62
256
370
-1
  6
ByLayer
 10
28.7508187214566249
 20
2.158874143000677
 30
0.0
 11
49.8065873034129396
 21
-14.4227986639932055
 31
0.0
  0
ARC
  5
7C
100
AcDbEntity
  8
arm down
 62
5
370
0
  6
CONTINUOUS
100
AcDbCircle
 10
26.8755200000000087
 20
9.9999999999999964
 30
0.0
 40
5.0
100
AcDbArc
 50
296.4022060537972152
 51
347.1560737212328718
  0
ARC
  5
7D
100
AcDbEntity
  8
arm down
 62
256
370
-1
  6
ByLayer
100
AcDbCircle
 10
29.9882076645037614
 20
3.7301375211854673
 30
0.0
 40
2.0
100
AcDbArc
 50
116.4022060537975563
 51
231.7791395789497813
  0
LINE
  5
7E
100
AcDbEntity
100
AcDbLine
  8
servo
 62
256
370
-1
  6
ByLayer
 10
16.8755200000000194
 20
150.9113976920785092
 30
0.0
 11
57.3755200000000158
 21
150.9113976920785092
 31
0.0
  0
LINE
  5
7F
100
AcDbEntity
100
AcDbLine
  8
servo
 62
256
370
-1
  6
ByLayer
 10
57.3755200000000158
 20
110.4113976920785092
 30
0.0
 11
57.3755200000000158
 21
150.9113976920785092
 31
0.0
  0
LINE
  5
80
100
AcDbEntity
100
AcDbLine
  8
servo
 62
256
370
-1
  6
ByLayer
 10
16.8755200000000158
 20
110.4113976920785092
 30
0.0
 11
57.3755200000000158
 21
110.4113976920785092
 31
0.0
  0
LINE
  5
81
100
AcDbEntity
100
AcDbLine
  8
servo
 62
256
370
-1
  6
ByLayer
 10
16.8755200000000158
 20
110.4113976920785092
 30
0.0
 11
16.8755200000000194
 21
150.9113976920785092
 31
0.0
  0
LINE
  5
82
100
AcDbEntity
100
AcDbLine
  8
servo
 62
256
370
-1
  6
ByLayer
 10
9.3755200000000141
 20
119.9113976920785092
 30
0.0
 11
16.8755200000000158
 21
119.9113976920785092
 31
0.0
  0
LINE
  5
83
100
AcDbEntity
100
AcDbLine
  8
servo
 62
256
370
-1
  6
ByLayer
 10
57.3755200000000158
 20
119.9113976920785092
 30
0.0
 11
64.8755200000000087
 21
119.9113976920785092
 31
0.0
  0
LINE
  5
84
100
AcDbEntity
100
AcDbLine
  8
servo
 62
256
370
-1
  6
ByLayer
 10
57.3755200000000158
 20
117.9113976920785092
 30
0.0
 11
64.8755200000000087
 21
117.9113976920785092
 31
0.0
  0
LINE
  5
85
100
AcDbEntity
100
AcDbLine
  8
servo
 62
256
370
-1
  6
ByLayer
 10
9.3755200000000141
 20
117.9113976920785092
 30
0.0
 11
16.8755200000000158
 21
117.9113976920785092
 31
0.0
  0
LINE
  5
86
100
AcDbEntity
100
AcDbLine
  8
servo
 62
256
370
-1
  6
ByLayer
 10
9.3755200000000141
 20
117.9113976920785092
 30
0.0
 11
9.3755200000000141
 21
119.9113976920785092
 31
0.0
  0
LINE
  5
87
100
AcDbEntity
100
AcDbLine
  8
servo
 62
256
370
-1
  6
ByLayer
 10
64.8755200000000087
 20
117.9113976920785092
 30
0.0
 11
64.8755200000000087
 21
119.9113976920785092
 31
0.0
  0
LINE
  5
88
100
AcDbEntity
100
AcDbLine
  8
servo
 62
256
370
-1
  6
ByLayer
 10
43.3755200000000158
 20
100.9113976920785092
 30
0.0
 11
43.3755200000000158
 21
102.9113976920785092
 31
0.0
  0
LINE
  5
89
100
AcDbEntity
100
AcDbLine
  8
servo
 62
256
370
-1
  6
ByLayer
 10
23.8755200000000158
 20
100.9113976920785092
 30
0.0
 11
43.3755200000000158
 21
100.9113976920785092
 31
0.0
  0
LINE
  5
8A
100
AcDbEntity
100
AcDbLine
  8
servo
 62
256
370
-1
  6
ByLayer
 10
29.8755200000000158
 20
102.9113976920785092
 30
0.0
 11
29.8755200000000158
 21
110.4113976920785092
 31
0.0
  0
LINE
  5
8B
100
AcDbEntity
100
AcDbLine
  8
servo
 62
256
370
-1
  6
ByLayer
 10
23.8755200000000158
 20
100.9113976920785092
 30
0.0
 11
23.8755200000000158
 21
110.4113976920785092
 31
0.0
  0
LINE
  5
8C
100
AcDbEntity
100
AcDbLine
  8
0
 62
256
370
-1
  6
ByLayer
 10
26.8755200000000158
 20
100.9113976920785092
 30
0.0
 11
26.8755200000000158
 21
110.4113976920785092
 31
0.0
  0
LINE
  5
8D
100
AcDbEntity
100
AcDbLine
  8
servo
 62
256
370
-1
  6
ByLayer
 10
23.8755200000000158
 20
102.9113976920785092
 30
0.0
 11
43.3755200000000158
 21
102.9113976920785092
 31
0.0
  0
LINE
  5
8E
100
AcDbEntity
100
AcDbLine
  8
DPDT
 62
256
370
-1
  6
ByLayer
 10
29.8755200000000123
 20
35.0
 30
0.0
 11
29.8755200000000123
 21
44.0
 31
0.0
  0
LINE
  5
8F
100
AcDbEntity
100
AcDbLine
  8
DPDT
 62
256
370
-1
  6
ByLayer
 10
23.8755200000000123
 20
35.0
 30
0.0
 11
23.8755200000000123
 21
44.0
 31
0.0
  0
LINE
  5
90
100
AcDbEntity
100
AcDbLine
  8
arm
 62
256
370
-1
  6
ByLayer
 10
65.8419961996651892
 20
95.9113976920785092
 30
0.0
 11
65.8419961996651892
 21
100.9113976920785092
 31
0.0
  0
LINE
  5
91
100
AcDbEntity
100
AcDbLine
  8
arm
 62
256
370
-1
  6
ByLayer
 10
29.8755200000000158
 20
100.9113976920785092
 30
0.0
 11
65.8419961996651892
 21
100.9113976920785092
 31
0.0
  0
LINE
  5
92
100
AcDbEntity
100
AcDbLine
  8
arm
 62
256
370
-1
  6
ByLayer
 10
29.8755200000000158
 20
95.9113976920785092
 30
0.0
 11
65.8419961996651892
 21
95.9113976920785092
 31
0.0
  0
LINE
  5
93
100
AcDbEntity
100
AcDbLine
  8
arm
 62
256
370
-1
  6
ByLayer
 10
29.8755200000000158
 20
95.9113976920785092
 30
0.0
 11
29.8755200000000158
 21
100.9113976920785092
 31
0.0
  0
CIRCLE
  5
94
100
AcDbEntity
100
AcDbCircle
  8
DPDT
 62
256
370
-1
  6
ByLayer
 10
26.8755200000000158
 20
98.4113976920785092
 30
0.0
 40
3.0
  0
LINE
  5
95
100
AcDbEntity
100
AcDbLine
  8
DPDT
 62
256
370
-1
  6
ByLayer
 10
19.3755200000000123
 20
92.4113976920785092
 30
0.0
 11
19.3755200000000123
 21
104.4113976920785092
 31
0.0
  0
LINE
  5
96
100
AcDbEntity
100
AcDbLine
  8
DPDT
 62
256
370
-1
  6
ByLayer
 10
19.3755200000000123
 20
92.4113976920785092
 30
0.0
 11
34.3755200000000158
 21
92.4113976920785092
 31
0.0
  0
LINE
  5
97
100
AcDbEntity
100
AcDbLine
  8
DPDT
 62
256
370
-1
  6
ByLayer
 10
34.3755200000000158
 20
92.4113976920785092
 30
0.0
 11
34.3755200000000158
 21
104.4113976920785092
 31
0.0
  0
LINE
  5
98
100
AcDbEntity
100
AcDbLine
  8
DPDT
 62
256
370
-1
  6
ByLayer
 10
19.3755200000000123
 20
104.4113976920785092
 30
0.0
 11
34.3755200000000158
 21
104.4113976920785092
 31
0.0
  0
LINE
  5
99
100
AcDbEntity
100
AcDbLine
  8
MicroSwitch
 62
256
370
-1
  6
ByLayer
 10
40.5815570850871126
 20
-23.669171765211523
 30
0.0
 11
24.8644192215790696
 21
-11.3010038580604526
 31
0.0
  0
LINE
  5
9A
100
AcDbEntity
100
AcDbLine
  8
MicroSwitch
 62
256
370
-1
  6
ByLayer
 10
40.5815570850871126
 20
-23.669171765211523
 30
0.0
 11
46.7656410386626362
 21
-15.8106028334575068
 31
0.0
  0
LINE
  5
9B
100
AcDbEntity
100
AcDbLine
  8
MicroSwitch
 62
256
370
-1
  6
ByLayer
 10
24.8644192215790696
 20
-11.3010038580604526
 30
0.0
 11
31.0485031751546074
 21
-3.4424349263064382
 31
0.0
  0
LINE
  5
9C
100
AcDbEntity
100
AcDbLine
  8
MicroSwitch
 62
256
370
-1
  6
ByLayer
 10
46.7656410386626362
 20
-15.8106028334575068
 30
0.0
 11
31.0485031751546074
 21
-3.4424349263064382
 31
0.0
  0
CIRCLE
  5
9D
100
AcDbEntity
100
AcDbCircle
  8
MicroSwitch
 62
256
370
-1
  6
ByLayer
 10
42.8363565727856326
 20
-12.718560856669745
 30
0.0
 40
1.0
  0
CIRCLE
  5
9E
100
AcDbEntity
100
AcDbCircle
  8
MicroSwitch
 62
256
370
-1
  6
ByLayer
 10
36.7103040701621097
 20
-18.0778034090366191
 30
0.0
 40
1.0
  0
CIRCLE
  5
9F
100
AcDbEntity
100
AcDbCircle
  8
MicroSwitch
 62
256
370
-1
  6
ByLayer
 10
31.2093058179342897
 20
-13.7489446415337451
 30
0.0
 40
1.0
  0
LINE
  5
A0
100
AcDbEntity
100
AcDbLine
  8
MicroSwitch
 62
256
370
-1
  6
ByLayer
 10
24.8644192215790767
 20
94.6613976920785092
 30
0.0
 11
24.8644192215790767
 21
102.1613976920785092
 31
0.0
  0
LINE
  5
A1
100
AcDbEntity
100
AcDbLine
  8
MicroSwitch
 62
256
370
-1
  6
ByLayer
 10
24.8644192215790767
 20
94.6613976920785092
 30
0.0
 11
46.7656410386626433
 21
94.6613976920785092
 31
0.0
  0
LINE
  5
A2
100
AcDbEntity
100
AcDbLine
  8
MicroSwitch
 62
256
370
-1
  6
ByLayer
 10
46.7656410386626433
 20
94.6613976920785092
 30
0.0
 11
46.7656410386626433
 21
102.1613976920785092
 31
0.0
  0
LINE
  5
A3
100
AcDbEntity
100
AcDbLine
  8
MicroSwitch
 62
256
370
-1
  6
ByLayer
 10
24.8644192215790767
 20
102.1613976920785092
 30
0.0
 11
46.7656410386626433
 21
102.1613976920785092
 31
0.0
  0
LINE
  5
A4
100
AcDbEntity
100
AcDbLine
  8
MicroSwitch
 62
256
370
-1
  6
ByLayer
 10
31.0485031751546146
 20
94.6613976920785092
 30
0.0
 11
31.0485031751546146
 21
102.1613976920785092
 31
0.0
  0
LINE
  5
A5
100
AcDbEntity
100
AcDbLine
  8
0
 62
256
370
-1
  6
ByLayer
 10
-0.6244799999999913
 20
40.0
 30
0.0
 11
-0.6244799999999907
 21
-33.669171765211523
 31
0.0
  0
LINE
  5
A6
100
AcDbEntity
100
AcDbLine
  8
0
 62
256
370
-1
  6
ByLayer
 10
4.3755200000000087
 20
40.0
 30
0.0
 11
4.3755200000000087
 21
-33.669171765211523
 31
0.0
  0
LINE
  5
A7
100
AcDbEntity
100
AcDbLine
  8
battery
 62
256
370
-1
  6
ByLayer
 10
79.904183713144306
 20
-13.669171765211523
 30
0.0
 11
109.904183713144306
 21
-13.669171765211523
 31
0.0
  0
LINE
  5
A8
100
AcDbEntity
100
AcDbLine
  8
battery
 62
256
370
-1
  6
ByLayer
 10
109.904183713144306
 20
-28.669171765211523
 30
0.0
 11
109.904183713144306
 21
-13.669171765211523
 31
0.0
  0
LINE
  5
A9
100
AcDbEntity
100
AcDbLine
  8
battery
 62
256
370
-1
  6
ByLayer
 10
79.904183713144306
 20
-28.669171765211523
 30
0.0
 11
79.904183713144306
 21
-13.669171765211523
 31
0.0
  0
LINE
  5
AA
100
AcDbEntity
100
AcDbLine
  8
0
 62
256
370
-1
  6
ByLayer
 10
4.3755200000000114
 20
-28.669171765211523
 30
0.0
 11
119.904183713144306
 21
-28.669171765211523
 31
0.0
  0
LINE
  5
AB
100
AcDbEntity
100
AcDbLine
  8
0
 62
256
370
-1
  6
ByLayer
 10
-0.6244799999999907
 20
-33.669171765211523
 30
0.0
 11
124.904183713144306
 21
-33.669171765211523
 31
0.0
  0
LINE
  5
AC
100
AcDbEntity
100
AcDbLine
  8
0
 62
256
370
-1
  6
ByLayer
 10
124.904183713144306
 20
-33.669171765211523
 30
0.0
 11
124.904183713144306
 21
40.0
 31
0.0
  0
LINE
  5
AD
100
AcDbEntity
100
AcDbLine
  8
0
 62
256
370
-1
  6
ByLayer
 10
119.904183713144306
 20
-33.669171765211523
 30
0.0
 11
119.904183713144306
 21
40.0
 31
0.0
  0
LINE
  5
AE
100
AcDbEntity
100
AcDbLine
  8
0
 62
256
370
-1
  6
ByLayer
 10
-0.6244799999999887
 20
82.4113976920785092
 30
0.0
 11
124.904183713144306
 21
82.4113976920785092
 31
0.0
  0
LINE
  5
AF
100
AcDbEntity
100
AcDbLine
  8
0
 62
256
370
-1
  6
ByLayer
 10
4.3755200000000114
 20
87.4113976920785092
 30
0.0
 11
119.904183713144306
 21
87.4113976920785092
 31
0.0
  0
LINE
  5
B0
100
AcDbEntity
100
AcDbLine
  8
battery
 62
256
370
-1
  6
ByLayer
 10
79.904183713144306
 20
152.4113976920785092
 30
0.0
 11
109.904183713144306
 21
152.4113976920785092
 31
0.0
  0
LINE
  5
B1
100
AcDbEntity
100
AcDbLine
  8
battery
 62
256
370
-1
  6
ByLayer
 10
79.904183713144306
 20
97.4113976920785092
 30
0.0
 11
79.904183713144306
 21
152.4113976920785092
 31
0.0
  0
LINE
  5
B2
100
AcDbEntity
100
AcDbLine
  8
battery
 62
256
370
-1
  6
ByLayer
 10
79.904183713144306
 20
97.4113976920785092
 30
0.0
 11
109.904183713144306
 21
97.4113976920785092
 31
0.0
  0
LINE
  5
B3
100
AcDbEntity
100
AcDbLine
  8
battery
 62
256
370
-1
  6
ByLayer
 10
109.904183713144306
 20
97.4113976920785092
 30
0.0
 11
109.904183713144306
 21
152.4113976920785092
 31
0.0
  0
LINE
  5
B4
100
AcDbEntity
100
AcDbLine
  8
0
 62
256
370
-1
  6
ByLayer
 10
124.904183713144306
 20
82.4113976920785092
 30
0.0
 11
124.904183713144306
 21
162.4113976920785092
 31
0.0
  0
LINE
  5
B5
100
AcDbEntity
100
AcDbLine
  8
0
 62
256
370
-1
  6
ByLayer
 10
-0.6244799999999887
 20
82.4113976920785092
 30
0.0
 11
-0.6244799999999838
 21
162.4113976920785092
 31
0.0
  0
LINE
  5
B6
100
AcDbEntity
100
AcDbLine
  8
battery
 62
256
370
-1
  6
ByLayer
 10
-0.6244799999999838
 20
162.4113976920785092
 30
0.0
 11
124.904183713144306
 21
162.4113976920785092
 31
0.0
  0
LINE
  5
B7
100
AcDbEntity
100
AcDbLine
  8
0
 62
256
370
-1
  6
ByLayer
 10
4.3755200000000114
 20
82.4113976920785092
 30
0.0
 11
4.3755200000000158
 21
157.4113976920785092
 31
0.0
  0
LINE
  5
B8
100
AcDbEntity
100
AcDbLine
  8
0
 62
256
370
-1
  6
ByLayer
 10
119.904183713144306
 20
82.4113976920785092
 30
0.0
 11
119.904183713144306
 21
157.4113976920785092
 31
0.0
  0
LINE
  5
B9
100
AcDbEntity
100
AcDbLine
  8
battery
 62
256
370
-1
  6
ByLayer
 10
4.3755200000000158
 20
157.4113976920785092
 30
0.0
 11
119.904183713144306
 21
157.4113976920785092
 31
0.0
  0
LINE
  5
BA
100
AcDbEntity
100
AcDbLine
  8
0
 62
256
370
-1
  6
ByLayer
 10
44.5405673823909254
 20
35.0
 30
0.0
 11
44.5405673823909254
 21
40.0
 31
0.0
  0
LINE
  5
BB
100
AcDbEntity
100
AcDbLine
  8
0
 62
256
370
-1
  6
ByLayer
 10
45.0405673823909254
 20
35.0
 30
0.0
 11
45.0405673823909254
 21
40.0
 31
0.0
  0
LINE
  5
BC
100
AcDbEntity
100
AcDbLine
  8
0
 62
256
370
-1
  6
ByLayer
 10
-0.6244799999999913
 20
40.0
 30
0.0
 11
44.5405673823909254
 21
40.0
 31
0.0
  0
LINE
  5
BD
100
AcDbEntity
100
AcDbLine
  8
0
 62
256
370
-1
  6
ByLayer
 10
4.3755200000000096
 20
35.0
 30
0.0
 11
44.5405673823909254
 21
35.0
 31
0.0
  0
LINE
  5
BE
100
AcDbEntity
100
AcDbLine
  8
0
 62
256
370
-1
  6
ByLayer
 10
45.0405673823909254
 20
40.0
 30
0.0
 11
124.904183713144306
 21
40.0
 31
0.0
  0
LINE
  5
BF
100
AcDbEntity
100
AcDbLine
  8
0
 62
256
370
-1
  6
ByLayer
 10
45.0405673823909254
 20
35.0
 30
0.0
 11
119.904183713144306
 21
35.0
 31
0.0
  0
LINE
  5
C0
100
AcDbEntity
100
AcDbLine
  8
microswitch support
 62
256
370
-1
  6
ByLayer
 10
1.8755200000000112
 20
107.1613976920785092
 30
0.0
 11
45.2196200502687589
 21
107.1613976920785092
 31
0.0
  0
LINE
  5
C1
100
AcDbEntity
100
AcDbLine
  8
microswitch support
 62
256
370
-1
  6
ByLayer
 10
1.875520000000011
 20
102.1613976920785092
 30
0.0
 11
1.8755200000000112
 21
107.1613976920785092
 31
0.0
  0
LINE
  5
C2
100
AcDbEntity
100
AcDbLine
  8
microswitch support
 62
256
370
-1
  6
ByLayer
 10
1.875520000000011
 20
102.1613976920785092
 30
0.0
 11
45.2196200502687589
 21
102.1613976920785092
 31
0.0
  0
LINE
  5
C3
100
AcDbEntity
100
AcDbLine
  8
microswitch support
 62
256
370
-1
  6
ByLayer
 10
45.2196200502687589
 20
102.1613976920785092
 30
0.0
 11
45.2196200502687589
 21
107.1613976920785092
 31
0.0
  0
LINE
  5
C4
100
AcDbEntity
100
AcDbLine
  8
servo Support
 62
256
370
-1
  6
ByLayer
 10
1.8755200000000087
 20
20.0
 30
0.0
 11
13.8755200000000087
 21
20.0
 31
0.0
  0
LINE
  5
C5
100
AcDbEntity
100
AcDbLine
  8
servo Support
 62
256
370
-1
  6
ByLayer
 10
15.8755200000000087
 20
18.0
 30
0.0
 11
15.8755200000000087
 21
0.0000000000000004
 31
0.0
  0
ARC
  5
C6
100
AcDbEntity
  8
servo Support
 62
256
370
-1
  6
ByLayer
100
AcDbCircle
 10
13.8755200000000087
 20
18.0
 30
0.0
 40
2.0
100
AcDbArc
 50
0.0
 51
90.0
  0
CIRCLE
  5
C7
100
AcDbEntity
100
AcDbCircle
  8
servo Support
 62
256
370
-1
  6
ByLayer
 10
11.6255200000000087
 20
15.0000000000000036
 30
0.0
 40
1.5
  0
CIRCLE
  5
C8
100
AcDbEntity
100
AcDbCircle
  8
servo Support
 62
256
370
-1
  6
ByLayer
 10
11.6255200000000087
 20
5.0000000000000036
 30
0.0
 40
1.5
  0
CIRCLE
  5
C9
100
AcDbEntity
100
AcDbCircle
  8
servo Support
 62
256
370
-1
  6
ByLayer
 10
62.6255200000000016
 20
5.0000000000000036
 30
0.0
 40
1.5
  0
CIRCLE
  5
CA
100
AcDbEntity
100
AcDbCircle
  8
servo Support
 62
256
370
-1
  6
ByLayer
 10
62.6255200000000016
 20
15.0000000000000036
 30
0.0
 40
1.5
  0
LINE
  5
CB
100
AcDbEntity
100
AcDbLine
  8
servo Support
 62
256
370
-1
  6
ByLayer
 10
58.3755200000000087
 20
18.0
 30
0.0
 11
58.3755200000000087
 21
-0.0000000000000002
 31
0.0
  0
ARC
  5
CC
100
AcDbEntity
  8
servo Support
 62
256
370
-1
  6
ByLayer
100
AcDbCircle
 10
60.3755200000000087
 20
18.0
 30
0.0
 40
2.0
100
AcDbArc
 50
90.0
 51
180.0
  0
LINE
  5
CD
100
AcDbEntity
100
AcDbLine
  8
servo Support
 62
256
370
-1
  6
ByLayer
 10
60.3755200000000087
 20
20.0
 30
0.0
 11
64.3755200000000087
 21
19.9999999999999964
 31
0.0
  0
ARC
  5
CE
100
AcDbEntity
  8
servo Support
 62
256
370
-1
  6
ByLayer
100
AcDbCircle
 10
64.3755200000000087
 20
17.9999999999999964
 30
0.0
 40
2.0
100
AcDbArc
 50
0.0
 51
90.0
  0
LINE
  5
CF
100
AcDbEntity
100
AcDbLine
  8
servo Support
 62
256
370
-1
  6
ByLayer
 10
1.8755200000000087
 20
-31.169171765211523
 30
0.0
 11
66.3755200000000087
 21
-31.169171765211523
 31
0.0
  0
LINE
  5
D0
100
AcDbEntity
100
AcDbLine
  8
servo Support
 62
256
370
-1
  6
ByLayer
 10
66.3755200000000087
 20
17.9999999999999964
 30
0.0
 11
66.3755200000000087
 21
-31.169171765211523
 31
0.0
  0
LINE
  5
D1
100
AcDbEntity
100
AcDbLine
  8
servo Support
 62
256
370
-1
  6
ByLayer
 10
15.8755200000000087
 20
0.0000000000000004
 30
0.0
 11
58.3755200000000087
 21
-0.0000000000000002
 31
0.0
  0
LINE
  5
D2
100
AcDbEntity
100
AcDbLine
  8
servo Support
 62
256
370
-1
  6
ByLayer
 10
1.8755200000000152
 20
124.9113976920785092
 30
0.0
 11
66.3755200000000087
 21
124.9113976920785092
 31
0.0
  0
LINE
  5
D3
100
AcDbEntity
100
AcDbLine
  8
servo Support
 62
256
370
-1
  6
ByLayer
 10
1.875520000000015
 20
119.9113976920785092
 30
0.0
 11
1.8755200000000152
 21
124.9113976920785092
 31
0.0
  0
LINE
  5
D4
100
AcDbEntity
100
AcDbLine
  8
servo Support
 62
256
370
-1
  6
ByLayer
 10
1.875520000000015
 20
119.9113976920785092
 30
0.0
 11
66.3755200000000087
 21
119.9113976920785092
 31
0.0
  0
LINE
  5
D5
100
AcDbEntity
100
AcDbLine
  8
servo Support
 62
256
370
-1
  6
ByLayer
 10
66.3755200000000087
 20
119.9113976920785092
 30
0.0
 11
66.3755200000000087
 21
124.9113976920785092
 31
0.0
  0
LINE
  5
D6
100
AcDbEntity
100
AcDbLine
  8
leftside
 62
256
370
-1
  6
ByLayer
 10
-27.8607777276785917
 20
19.9999999999999929
 30
0.0
 11
-27.8607777276785811
 21
-13.6691717652115088
 31
0.0
  0
LINE
  5
D7
100
AcDbEntity
100
AcDbLine
  8
leftside
 62
256
370
-1
  6
ByLayer
 10
-87.8607777276786379
 20
-33.6691717652115017
 30
0.0
 11
-47.8607777276785811
 21
-33.6691717652115088
 31
0.0
  0
LINE
  5
D8
100
AcDbEntity
100
AcDbLine
  8
leftside
 62
256
370
-1
  6
ByLayer
 10
-107.8607777276786095
 20
20.0000000000000142
 30
0.0
 11
-107.8607777276786237
 21
-13.6691717652115017
 31
0.0
  0
LINE
  5
D9
100
AcDbEntity
100
AcDbLine
  8
leftside
 62
256
370
-1
  6
ByLayer
 10
-87.8607777276785953
 20
40.0000000000000071
 30
0.0
 11
-47.8607777276785953
 21
40.0
 31
0.0
  0
MTEXT
  5
DA
100
AcDbEntity
100
AcDbMText
  8
leftside
 62
256
370
-1
  6
ByLayer
 10
-54.6654957235689949
 20
6.9693062277060074
 30
0.0
 40
5.0
 41
100.0
 71
1
 72
2
  1
Left
  7
normallatin1
 50
0.0
 73
0
 44
1.0
  0
LINE
  5
DB
100
AcDbEntity
100
AcDbLine
  8
Right Side
 62
256
370
-1
  6
ByLayer
 10
233.1437015945711835
 20
19.9115947247605192
 30
0.0
 11
233.1437015945712119
 21
-13.7575770404509825
 31
0.0
  0
LINE
  5
DC
100
AcDbEntity
100
AcDbLine
  8
Right Side
 62
256
370
-1
  6
ByLayer
 10
173.1437015945711551
 20
-33.7575770404509754
 30
0.0
 11
213.1437015945712119
 21
-33.7575770404509825
 31
0.0
  0
LINE
  5
DD
100
AcDbEntity
100
AcDbLine
  8
Right Side
 62
256
370
-1
  6
ByLayer
 10
153.1437015945711551
 20
19.9115947247605405
 30
0.0
 11
153.1437015945711551
 21
-13.7575770404509754
 31
0.0
  0
MTEXT
  5
DE
100
AcDbEntity
100
AcDbMText
  8
Right Side
 62
256
370
-1
  6
ByLayer
 10
173.6881786436106268
 20
1.3611926225988293
 30
0.0
 40
5.0
 41
100.0
 71
1
 72
2
  1
Right\~Inside
  7
normallatin1
 50
0.0
 73
0
 44
1.0
  0
LINE
  5
DF
100
AcDbEntity
100
AcDbLine
  8
Right Side
 62
256
370
-1
  6
ByLayer
 10
174.1437015945711835
 20
39.9115947247605334
 30
0.0
 11
212.1437015945711835
 21
39.9115947247605263
 31
0.0
  0
LINE
  5
E0
100
AcDbEntity
100
AcDbLine
  8
Right Side
 62
256
370
-1
  6
ByLayer
 10
158.1437015945711835
 20
33.9115947247605547
 30
0.0
 11
172.0223812510115238
 21
33.9115947247605547
 31
0.0
  0
ARC
  5
E1
100
AcDbEntity
  8
Right Side
 62
7
370
0
  6
CONTINUOUS
100
AcDbCircle
 10
173.0830414227913536
 20
34.9722548965403774
 30
0.0
 40
1.5
100
AcDbArc
 50
225.0000000000005684
 51
44.9999999999996092
  0
LINE
  5
E2
100
AcDbEntity
100
AcDbLine
  8
Right Side
 62
256
370
-1
  6
ByLayer
 10
174.1437015945711835
 20
39.9115947247605334
 30
0.0
 11
174.1437015945711835
 21
36.0329150683201931
 31
0.0
  0
LINE
  5
E3
100
AcDbEntity
100
AcDbLine
  8
Right Side
 62
256
370
-1
  6
ByLayer
 10
158.1437015945711835
 20
33.9115947247605547
 30
0.0
 11
158.1437015945711835
 21
22.0329150683201824
 31
0.0
  0
LINE
  5
E4
100
AcDbEntity
100
AcDbLine
  8
Right Side
 62
256
370
-1
  6
ByLayer
 10
153.1437015945711551
 20
19.9115947247605405
 30
0.0
 11
156.0223812510115238
 21
19.9115947247605405
 31
0.0
  0
ARC
  5
E5
100
AcDbEntity
  8
Right Side
 62
7
370
0
  6
CONTINUOUS
100
AcDbCircle
 10
157.0830414227913536
 20
20.9722548965403632
 30
0.0
 40
1.5
100
AcDbArc
 50
224.999999999999801
 51
44.9999999999997229
  0
LINE
  5
E6
100
AcDbEntity
100
AcDbLine
  8
Right Side
 62
256
370
-1
  6
ByLayer
 10
230.2650219381308148
 20
-13.7575770404509825
 30
0.0
 11
233.1437015945712119
 21
-13.7575770404509825
 31
0.0
  0
LINE
  5
E7
100
AcDbEntity
100
AcDbLine
  8
Right Side
 62
256
370
-1
  6
ByLayer
 10
228.1437015945711551
 20
-15.8788973840106156
 30
0.0
 11
228.1437015945711551
 21
-28.7575770404510109
 31
0.0
  0
ARC
  5
E8
100
AcDbEntity
  8
Right Side
 62
7
370
0
  6
CONTINUOUS
100
AcDbCircle
 10
229.2043617663509849
 20
-14.8182372122308035
 30
0.0
 40
1.5
100
AcDbArc
 50
44.9999999999997655
 51
224.9999999999995168
  0
LINE
  5
E9
100
AcDbEntity
100
AcDbLine
  8
Right Side
 62
256
370
-1
  6
ByLayer
 10
215.2650219381308716
 20
-28.7575770404510038
 30
0.0
 11
228.1437015945711551
 21
-28.7575770404510109
 31
0.0
  0
ARC
  5
EA
100
AcDbEntity
  8
Right Side
 62
7
370
0
  6
CONTINUOUS
100
AcDbCircle
 10
214.2043617663510418
 20
-29.8182372122308266
 30
0.0
 40
1.5
100
AcDbArc
 50
44.9999999999998082
 51
224.9999999999995168
  0
LINE
  5
EB
100
AcDbEntity
100
AcDbLine
  8
Right Side
 62
256
370
-1
  6
ByLayer
 10
213.1437015945712119
 20
-30.8788973840106387
 30
0.0
 11
213.1437015945712119
 21
-33.7575770404509825
 31
0.0
  0
LINE
  5
EC
100
AcDbEntity
100
AcDbLine
  8
Right Side
 62
256
370
-1
  6
ByLayer
 10
153.1437015945711551
 20
-13.7575770404509754
 30
0.0
 11
156.0223812510114954
 21
-13.7575770404509754
 31
0.0
  0
LINE
  5
ED
100
AcDbEntity
100
AcDbLine
  8
Right Side
 62
256
370
-1
  6
ByLayer
 10
158.1437015945711551
 20
-15.8788973840106067
 30
0.0
 11
158.1437015945711551
 21
-28.7575770404509861
 31
0.0
  0
ARC
  5
EE
100
AcDbEntity
  8
Right Side
 62
7
370
0
  6
CONTINUOUS
100
AcDbCircle
 10
157.0830414227913252
 20
-14.8182372122307928
 30
0.0
 40
1.5
100
AcDbArc
 50
315.0000000000003979
 51
135.0000000000003411
  0
LINE
  5
EF
100
AcDbEntity
100
AcDbLine
  8
Right Side
 62
256
370
-1
  6
ByLayer
 10
158.1437015945711551
 20
-28.7575770404509861
 30
0.0
 11
171.0223812510115238
 21
-28.7575770404509896
 31
0.0
  0
LINE
  5
F0
100
AcDbEntity
100
AcDbLine
  8
Right Side
 62
256
370
-1
  6
ByLayer
 10
173.1437015945711551
 20
-30.8788973840106173
 30
0.0
 11
173.1437015945711551
 21
-33.7575770404509754
 31
0.0
  0
ARC
  5
F1
100
AcDbEntity
  8
Right Side
 62
7
370
0
  6
CONTINUOUS
100
AcDbCircle
 10
172.0830414227913252
 20
-29.8182372122308053
 30
0.0
 40
1.5
100
AcDbArc
 50
315.0000000000004547
 51
134.9999999999996305
  0
LINE
  5
F2
100
AcDbEntity
100
AcDbLine
  8
Right Side
 62
256
370
-1
  6
ByLayer
 10
214.2650219381308432
 20
33.9115947247605405
 30
0.0
 11
228.1437015945711835
 21
33.9115947247605405
 31
0.0
  0
ARC
  5
F3
100
AcDbEntity
  8
Right Side
 62
7
370
0
  6
CONTINUOUS
100
AcDbCircle
 10
213.2043617663510133
 20
34.9722548965403632
 30
0.0
 40
1.5
100
AcDbArc
 50
135.0000000000003979
 51
315.0000000000002274
  0
LINE
  5
F4
100
AcDbEntity
100
AcDbLine
  8
Right Side
 62
256
370
-1
  6
ByLayer
 10
212.1437015945711835
 20
39.9115947247605263
 30
0.0
 11
212.1437015945711835
 21
36.0329150683201789
 31
0.0
  0
LINE
  5
F5
100
AcDbEntity
100
AcDbLine
  8
Right Side
 62
256
370
-1
  6
ByLayer
 10
228.1437015945711835
 20
33.9115947247605405
 30
0.0
 11
228.1437015945711835
 21
22.0329150683201505
 31
0.0
  0
ARC
  5
F6
100
AcDbEntity
  8
Right Side
 62
7
370
0
  6
CONTINUOUS
100
AcDbCircle
 10
229.2043617663510133
 20
20.9722548965403419
 30
0.0
 40
1.5
100
AcDbArc
 50
135.0000000000005969
 51
315.0000000000002274
  0
LINE
  5
F7
100
AcDbEntity
100
AcDbLine
  8
Right Side
 62
256
370
-1
  6
ByLayer
 10
230.2650219381308432
 20
19.9115947247605192
 30
0.0
 11
233.1437015945711835
 21
19.9115947247605192
 31
0.0
  0
LINE
  5
F8
100
AcDbEntity
100
AcDbLine
  8
leftside
 62
256
370
-1
  6
ByLayer
 10
-47.8607777276785953
 20
40.0
 30
0.0
 11
-47.8607777276785953
 21
37.1213203435596597
 31
0.0
  0
ARC
  5
F9
100
AcDbEntity
  8
leftside
 62
7
370
0
  6
CONTINUOUS
100
AcDbCircle
 10
-46.8001175558987725
 20
36.060660171779837
 30
0.0
 40
1.5
100
AcDbArc
 50
135.0
 51
315.0
  0
LINE
  5
FA
100
AcDbEntity
100
AcDbLine
  8
leftside
 62
256
370
-1
  6
ByLayer
 10
-45.7394573841189498
 20
35.0000000000000142
 30
0.0
 11
-32.8607777276785953
 21
35.0000000000000142
 31
0.0
  0
LINE
  5
FB
100
AcDbEntity
100
AcDbLine
  8
leftside
 62
256
370
-1
  6
ByLayer
 10
-32.8607777276785953
 20
35.0000000000000142
 30
0.0
 11
-32.8607777276786024
 21
22.1213203435596242
 31
0.0
  0
ARC
  5
FC
100
AcDbEntity
  8
leftside
 62
7
370
0
  6
CONTINUOUS
100
AcDbCircle
 10
-31.8001175558987796
 20
21.0606601717798156
 30
0.0
 40
1.5
100
AcDbArc
 50
135.0000000000003695
 51
314.9999999999998863
  0
LINE
  5
FD
100
AcDbEntity
100
AcDbLine
  8
leftside
 62
256
370
-1
  6
ByLayer
 10
-30.7394573841189604
 20
19.9999999999999929
 30
0.0
 11
-27.8607777276785917
 21
19.9999999999999929
 31
0.0
  0
ARC
  5
FE
100
AcDbEntity
  8
leftside
 62
7
370
0
  6
CONTINUOUS
100
AcDbCircle
 10
-69.3001175558987939
 20
-30.1085115934317145
 30
0.0
 40
1.5
100
AcDbArc
 50
134.9999999999906208
 51
314.9999999999997726
  0
ARC
  5
FF
100
AcDbEntity
  8
leftside
 62
7
370
0
  6
CONTINUOUS
100
AcDbCircle
 10
-87.0501175558987939
 20
-30.1085115934317109
 30
0.0
 40
1.5
100
AcDbArc
 50
134.9999999999979821
 51
315.0000000000002274
  0
LINE
  5
100
100
AcDbEntity
100
AcDbLine
  8
leftside
 62
256
370
-1
  6
ByLayer
 10
-102.8607777276785953
 20
35.0000000000000284
 30
0.0
 11
-89.9820980712382266
 21
35.0000000000000284
 31
0.0
  0
ARC
  5
101
100
AcDbEntity
  8
leftside
 62
7
370
0
  6
CONTINUOUS
100
AcDbCircle
 10
-88.9214378994584109
 20
36.0606601717798512
 30
0.0
 40
1.5
100
AcDbArc
 50
225.0000000000001705
 51
45.0000000000003837
  0
LINE
  5
102
100
AcDbEntity
100
AcDbLine
  8
leftside
 62
256
370
-1
  6
ByLayer
 10
-87.8607777276785953
 20
40.0000000000000071
 30
0.0
 11
-87.8607777276785953
 21
37.121320343559681
 31
0.0
  0
LINE
  5
103
100
AcDbEntity
100
AcDbLine
  8
leftside
 62
256
370
-1
  6
ByLayer
 10
-107.8607777276786095
 20
20.0000000000000142
 30
0.0
 11
-104.9820980712382266
 21
20.0000000000000142
 31
0.0
  0
ARC
  5
104
100
AcDbEntity
  8
leftside
 62
7
370
0
  6
CONTINUOUS
100
AcDbCircle
 10
-103.9214378994584109
 20
21.060660171779837
 30
0.0
 40
1.5
100
AcDbArc
 50
225.0000000000001705
 51
45.000000000000199
  0
LINE
  5
105
100
AcDbEntity
100
AcDbLine
  8
leftside
 62
256
370
-1
  6
ByLayer
 10
-102.8607777276785953
 20
35.0000000000000284
 30
0.0
 11
-102.8607777276785953
 21
22.1213203435596597
 31
0.0
  0
ARC
  5
106
100
AcDbEntity
  8
leftside
 62
7
370
0
  6
CONTINUOUS
100
AcDbCircle
 10
-84.1714378994583967
 20
-30.1085115934317038
 30
0.0
 40
1.5
100
AcDbArc
 50
225.0000000000002842
 51
45.0000000000013358
  0
LINE
  5
107
100
AcDbEntity
100
AcDbLine
  8
leftside
 62
256
370
-1
  6
ByLayer
 10
-85.989457384118964
 20
-31.1691717652115301
 30
0.0
 11
-85.2320980712382124
 21
-31.1691717652115301
 31
0.0
  0
ARC
  5
108
100
AcDbEntity
  8
leftside
 62
7
370
0
  6
CONTINUOUS
100
AcDbCircle
 10
-66.4214378994584109
 20
-30.1085115934317145
 30
0.0
 40
1.5
100
AcDbArc
 50
225.0000000000001705
 51
45.0000000000094076
  0
LINE
  5
109
100
AcDbEntity
100
AcDbLine
  8
leftside
 62
256
370
-1
  6
ByLayer
 10
-68.2394573841189782
 20
-31.1691717652115372
 30
0.0
 11
-67.4820980712382266
 21
-31.1691717652115372
 31
0.0
  0
ARC
  5
10A
100
AcDbEntity
  8
leftside
 62
7
370
0
  6
CONTINUOUS
100
AcDbCircle
 10
-69.3001175558987939
 20
18.9393398282201773
 30
0.0
 40
1.5
100
AcDbArc
 50
45.000000000000199
 51
225.0000000000002842
  0
LINE
  5
10B
100
AcDbEntity
100
AcDbLine
  8
leftside
 62
256
370
-1
  6
ByLayer
 10
-70.3607777276786095
 20
17.878679656440351
 30
0.0
 11
-70.3607777276786095
 21
-29.0478514216515507
 31
0.0
  0
ARC
  5
10C
100
AcDbEntity
  8
leftside
 62
7
370
0
  6
CONTINUOUS
100
AcDbCircle
 10
-87.0501175558987939
 20
-6.4677373310247592
 30
0.0
 40
1.5
100
AcDbArc
 50
45.0000000000001705
 51
225.0000000000003126
  0
LINE
  5
10D
100
AcDbEntity
100
AcDbLine
  8
leftside
 62
256
370
-1
  6
ByLayer
 10
-88.1107777276786095
 20
-7.5283975028045864
 30
0.0
 11
-88.1107777276786095
 21
-29.0478514216518207
 31
0.0
  0
LINE
  5
10E
100
AcDbEntity
100
AcDbLine
  8
leftside
 62
256
370
-1
  6
ByLayer
 10
-32.8607777276786166
 20
-15.7904921087711578
 30
0.0
 11
-32.8607777276786166
 21
-28.6691717652115372
 31
0.0
  0
LINE
  5
10F
100
AcDbEntity
100
AcDbLine
  8
leftside
 62
256
370
-1
  6
ByLayer
 10
-30.7394573841189818
 20
-13.6691717652115088
 30
0.0
 11
-27.8607777276785811
 21
-13.6691717652115088
 31
0.0
  0
ARC
  5
110
100
AcDbEntity
  8
leftside
 62
7
370
0
  6
CONTINUOUS
100
AcDbCircle
 10
-31.800117555898801
 20
-14.7298319369913315
 30
0.0
 40
1.5
100
AcDbArc
 50
45.0000000000000924
 51
225.0000000000002842
  0
LINE
  5
111
100
AcDbEntity
100
AcDbLine
  8
leftside
 62
256
370
-1
  6
ByLayer
 10
-45.7394573841189427
 20
-28.6691717652115301
 30
0.0
 11
-32.8607777276786166
 21
-28.6691717652115372
 31
0.0
  0
LINE
  5
112
100
AcDbEntity
100
AcDbLine
  8
leftside
 62
256
370
-1
  6
ByLayer
 10
-47.8607777276785811
 20
-30.7904921087711791
 30
0.0
 11
-47.8607777276785811
 21
-33.6691717652115088
 31
0.0
  0
ARC
  5
113
100
AcDbEntity
  8
leftside
 62
7
370
0
  6
CONTINUOUS
100
AcDbCircle
 10
-46.8001175558987654
 20
-29.7298319369913528
 30
0.0
 40
1.5
100
AcDbArc
 50
45.0
 51
225.0000000000002842
  0
LINE
  5
114
100
AcDbEntity
100
AcDbLine
  8
leftside
 62
256
370
-1
  6
ByLayer
 10
-107.8607777276786237
 20
-13.6691717652115017
 30
0.0
 11
-104.9820980712382408
 21
-13.6691717652115017
 31
0.0
  0
ARC
  5
115
100
AcDbEntity
  8
leftside
 62
7
370
0
  6
CONTINUOUS
100
AcDbCircle
 10
-103.9214378994584251
 20
-14.7298319369913244
 30
0.0
 40
1.5
100
AcDbArc
 50
314.9999999999997158
 51
134.9999999999998295
  0
LINE
  5
116
100
AcDbEntity
100
AcDbLine
  8
leftside
 62
256
370
-1
  6
ByLayer
 10
-102.8607777276786095
 20
-15.7904921087711507
 30
0.0
 11
-102.8607777276786095
 21
-28.6691717652115123
 31
0.0
  0
LINE
  5
117
100
AcDbEntity
100
AcDbLine
  8
leftside
 62
256
370
-1
  6
ByLayer
 10
-83.1107777276785953
 20
-7.5283975028045873
 30
0.0
 11
-83.1107777276785811
 21
-29.0478514216518384
 31
0.0
  0
ARC
  5
118
100
AcDbEntity
  8
leftside
 62
7
370
0
  6
CONTINUOUS
100
AcDbCircle
 10
-84.1714378994584109
 20
-6.4677373310247619
 30
0.0
 40
1.5
100
AcDbArc
 50
314.9999999999997726
 51
134.999999999999801
  0
LINE
  5
119
100
AcDbEntity
100
AcDbLine
  8
leftside
 62
256
370
-1
  6
ByLayer
 10
-85.9894573841189782
 20
-5.4070771592449374
 30
0.0
 11
-85.2320980712382266
 21
-5.4070771592449383
 31
0.0
  0
LINE
  5
11A
100
AcDbEntity
100
AcDbLine
  8
leftside
 62
256
370
-1
  6
ByLayer
 10
-65.3607777276786095
 20
17.878679656440351
 30
0.0
 11
-65.3607777276785953
 21
-29.0478514216515507
 31
0.0
  0
ARC
  5
11B
100
AcDbEntity
  8
leftside
 62
7
370
0
  6
CONTINUOUS
100
AcDbCircle
 10
-66.4214378994584251
 20
18.9393398282201773
 30
0.0
 40
1.5
100
AcDbArc
 50
314.9999999999997158
 51
134.9999999999998295
  0
LINE
  5
11C
100
AcDbEntity
100
AcDbLine
  8
leftside
 62
256
370
-1
  6
ByLayer
 10
-68.2394573841189782
 20
20.0
 30
0.0
 11
-67.4820980712382408
 21
20.0
 31
0.0
  0
LINE
  5
11D
100
AcDbEntity
100
AcDbLine
  8
leftside
 62
256
370
-1
  6
ByLayer
 10
-87.8607777276786379
 20
-30.7904921087711649
 30
0.0
 11
-87.8607777276786379
 21
-33.6691717652115017
 31
0.0
  0
ARC
  5
11E
100
AcDbEntity
  8
leftside
 62
7
370
0
  6
CONTINUOUS
100
AcDbCircle
 10
-88.9214378994584536
 20
-29.7298319369913386
 30
0.0
 40
1.5
100
AcDbArc
 50
314.9999999999997158
 51
134.9999999999998295
  0
LINE
  5
11F
100
AcDbEntity
100
AcDbLine
  8
leftside
 62
256
370
-1
  6
ByLayer
 10
-102.8607777276786095
 20
-28.6691717652115123
 30
0.0
 11
-89.9820980712382692
 21
-28.6691717652115159
 31
0.0
  0
LINE
  5
120
100
AcDbEntity
100
AcDbLine
  8
Bottom
 62
256
370
-1
  6
ByLayer
 10
-0.6244799999999944
 20
-80.9054694928901057
 30
0.0
 11
-0.6244799999999924
 21
-60.9054694928901128
 31
0.0
  0
LINE
  5
121
100
AcDbEntity
100
AcDbLine
  8
Bottom
 62
256
370
-1
  6
ByLayer
 10
-0.6244800000000003
 20
-140.9054694928901483
 30
0.0
 11
-0.6244799999999983
 21
-120.9054694928901768
 31
0.0
  0
LINE
  5
122
100
AcDbEntity
100
AcDbLine
  8
Bottom
 62
256
370
-1
  6
ByLayer
 10
124.904183713144306
 20
-80.9054694928901057
 30
0.0
 11
124.9041837131443202
 21
-60.9054694928901128
 31
0.0
  0
LINE
  5
123
100
AcDbEntity
100
AcDbLine
  8
Bottom
 62
256
370
-1
  6
ByLayer
 10
124.904183713144306
 20
-140.9054694928901483
 30
0.0
 11
124.904183713144306
 21
-120.9054694928901768
 31
0.0
  0
LINE
  5
124
100
AcDbEntity
100
AcDbLine
  8
Bottom
 62
256
370
-1
  6
ByLayer
 10
124.9041837131443202
 20
-60.9054694928901128
 30
0.0
 11
94.9041837131443202
 21
-60.9054694928901128
 31
0.0
  0
LINE
  5
125
100
AcDbEntity
100
AcDbLine
  8
Bottom
 62
256
370
-1
  6
ByLayer
 10
29.3755200000000087
 20
-60.9054694928901128
 30
0.0
 11
-0.6244799999999924
 21
-60.9054694928901128
 31
0.0
  0
LINE
  5
126
100
AcDbEntity
100
AcDbLine
  8
Bottom
 62
256
370
-1
  6
ByLayer
 10
94.904183713144306
 20
-140.9054694928901483
 30
0.0
 11
124.904183713144306
 21
-140.9054694928901483
 31
0.0
  0
LINE
  5
127
100
AcDbEntity
100
AcDbLine
  8
Bottom
 62
256
370
-1
  6
ByLayer
 10
29.3755199999999981
 20
-140.9054694928901483
 30
0.0
 11
-0.6244800000000003
 21
-140.9054694928901483
 31
0.0
  0
MTEXT
  5
128
100
AcDbEntity
100
AcDbMText
  8
Bottom
 62
256
370
-1
  6
ByLayer
 10
30.0431342776643007
 20
-87.3982088077506916
 30
0.0
 40
5.0
 41
100.0
 71
1
 72
2
  1
Bottom\~Inside
  7
normallatin1
 50
0.0
 73
0
 44
1.0
  0
LINE
  5
129
100
AcDbEntity
100
AcDbLine
  8
Bottom
 62
256
370
-1
  6
ByLayer
 10
1.8755199999999965
 20
-98.4054694928901341
 30
0.0
 11
1.8755199999999976
 21
-103.4054694928901483
 31
0.0
  0
LINE
  5
12A
100
AcDbEntity
100
AcDbLine
  8
Bottom
 62
256
370
-1
  6
ByLayer
 10
45.2196200502687446
 20
-116.1554694928901057
 30
0.0
 11
45.2196200502687446
 21
-116.1554694928901057
 31
0.0
  0
MTEXT
  5
12B
100
AcDbEntity
100
AcDbMText
  8
leftside
 62
256
370
-1
  6
ByLayer
 10
-56.6698622108051353
 20
-2.4706206958389156
 30
0.0
 40
5.0
 41
100.0
 71
1
 72
2
  1
Inside
  7
normallatin1
 50
0.0
 73
0
 44
1.0
  0
LINE
  5
12C
100
AcDbEntity
100
AcDbLine
  8
Bottom
 62
256
370
-1
  6
ByLayer
 10
66.3755199999999945
 20
-101.2841491493305028
 30
0.0
 11
66.3755199999999945
 21
-100.5267898364497654
 31
0.0
  0
ARC
  5
12D
100
AcDbEntity
  8
Bottom
 62
7
370
0
  6
CONTINUOUS
100
AcDbCircle
 10
65.3148598282201789
 20
-102.3448093211103327
 30
0.0
 40
1.5
100
AcDbArc
 50
224.9999999999988631
 51
45.0000000000003837
  0
LINE
  5
12E
100
AcDbEntity
100
AcDbLine
  8
Bottom
 62
256
370
-1
  6
ByLayer
 10
1.8755199999999976
 20
-103.4054694928901483
 30
0.0
 11
64.2541996564403206
 21
-103.4054694928901483
 31
0.0
  0
LINE
  5
12F
100
AcDbEntity
100
AcDbLine
  8
Bottom
 62
256
370
-1
  6
ByLayer
 10
45.2196200502687446
 20
-119.0341491493304744
 30
0.0
 11
45.2196200502687446
 21
-118.276789836449737
 31
0.0
  0
ARC
  5
130
100
AcDbEntity
  8
Bottom
 62
7
370
0
  6
CONTINUOUS
100
AcDbCircle
 10
44.1589598784889148
 20
-117.2161296646699213
 30
0.0
 40
1.5
100
AcDbArc
 50
315.0000000000003979
 51
135.0000000000009663
  0
LINE
  5
131
100
AcDbEntity
100
AcDbLine
  8
Bottom
 62
256
370
-1
  6
ByLayer
 10
1.8755200000000034
 20
-116.1554694928901057
 30
0.0
 11
43.0982997067090636
 21
-116.1554694928901057
 31
0.0
  0
ARC
  5
132
100
AcDbEntity
  8
Bottom
 62
7
370
0
  6
CONTINUOUS
100
AcDbCircle
 10
44.158959878488929
 20
-120.0948093211103043
 30
0.0
 40
1.5
100
AcDbArc
 50
225.0000000000047748
 51
45.0000000000003837
  0
ARC
  5
133
100
AcDbEntity
  8
Bottom
 62
7
370
0
  6
CONTINUOUS
100
AcDbCircle
 10
65.3148598282201647
 20
-99.4661296646699498
 30
0.0
 40
1.5
100
AcDbArc
 50
315.0000000000003979
 51
135.0000000000015348
  0
LINE
  5
134
100
AcDbEntity
100
AcDbLine
  8
Bottom
 62
256
370
-1
  6
ByLayer
 10
1.8755199999999965
 20
-98.4054694928901341
 30
0.0
 11
64.2541996564402922
 21
-98.4054694928901341
 31
0.0
  0
ARC
  5
135
100
AcDbEntity
  8
Bottom
 62
7
370
0
  6
CONTINUOUS
100
AcDbCircle
 10
3.3148598282201887
 20
-119.8448093211103611
 30
0.0
 40
1.5
100
AcDbArc
 50
224.9999999999996874
 51
45.0000000000003837
  0
LINE
  5
136
100
AcDbEntity
100
AcDbLine
  8
Bottom
 62
256
370
-1
  6
ByLayer
 10
-0.6244799999999983
 20
-120.9054694928901768
 30
0.0
 11
2.2541996564403615
 21
-120.9054694928901768
 31
0.0
  0
LINE
  5
137
100
AcDbEntity
100
AcDbLine
  8
Bottom
 62
256
370
-1
  6
ByLayer
 10
1.8755200000000034
 20
-116.1554694928901057
 30
0.0
 11
1.8755200000000087
 21
-119.034149149330517
 31
0.0
  0
LINE
  5
138
100
AcDbEntity
100
AcDbLine
  8
Bottom
 62
256
370
-1
  6
ByLayer
 10
3.9968403435596622
 20
-121.1554694928901483
 30
0.0
 11
43.0982997067092626
 21
-121.1554694928901483
 31
0.0
  0
ARC
  5
139
100
AcDbEntity
  8
Bottom
 62
7
370
0
  6
CONTINUOUS
100
AcDbCircle
 10
2.9361801717798355
 20
-120.0948093211103327
 30
0.0
 40
1.5
100
AcDbArc
 50
135.0000000000003126
 51
315.0000000000002842
  0
LINE
  5
13A
100
AcDbEntity
100
AcDbLine
  8
Bottom
 62
256
370
-1
  6
ByLayer
 10
94.9041837131443202
 20
-63.7841491493305028
 30
0.0
 11
94.9041837131443202
 21
-60.9054694928901128
 31
0.0
  0
ARC
  5
13B
100
AcDbEntity
  8
Bottom
 62
7
370
0
  6
CONTINUOUS
100
AcDbCircle
 10
93.8435235413645046
 20
-64.8448093211103327
 30
0.0
 40
1.5
100
AcDbArc
 50
225.0000000000007674
 51
45.0000000000003837
  0
LINE
  5
13C
100
AcDbEntity
100
AcDbLine
  8
Bottom
 62
256
370
-1
  6
ByLayer
 10
31.4968403435596542
 20
-65.9054694928901483
 30
0.0
 11
92.7828633695847174
 21
-65.9054694928901483
 31
0.0
  0
ARC
  5
13D
100
AcDbEntity
  8
Bottom
 62
7
370
0
  6
CONTINUOUS
100
AcDbCircle
 10
30.4361801717798279
 20
-64.8448093211103327
 30
0.0
 40
1.5
100
AcDbArc
 50
135.0
 51
315.0000000000002842
  0
LINE
  5
13E
100
AcDbEntity
100
AcDbLine
  8
Bottom
 62
256
370
-1
  6
ByLayer
 10
29.3755200000000052
 20
-63.7841491493305099
 30
0.0
 11
29.3755200000000087
 21
-60.9054694928901128
 31
0.0
  0
LINE
  5
13F
100
AcDbEntity
100
AcDbLine
  8
Bottom
 62
256
370
-1
  6
ByLayer
 10
-0.6244799999999944
 20
-80.9054694928901057
 30
0.0
 11
2.2541996564403584
 21
-80.9054694928901057
 31
0.0
  0
ARC
  5
140
100
AcDbEntity
  8
Bottom
 62
7
370
0
  6
CONTINUOUS
100
AcDbCircle
 10
3.3148598282201842
 20
-81.9661296646699213
 30
0.0
 40
1.5
100
AcDbArc
 50
315.000000000003638
 51
135.0000000000002842
  0
LINE
  5
141
100
AcDbEntity
100
AcDbLine
  8
Bottom
 62
256
370
-1
  6
ByLayer
 10
4.3755200000000043
 20
-118.7841491493305313
 30
0.0
 11
4.375520000000007
 21
-83.0267898364496091
 31
0.0
  0
LINE
  5
142
100
AcDbEntity
100
AcDbLine
  8
Bottom
 62
256
370
-1
  6
ByLayer
 10
29.3755199999999981
 20
-140.9054694928901483
 30
0.0
 11
29.3755199999999981
 21
-138.0267898364497796
 31
0.0
  0
ARC
  5
143
100
AcDbEntity
  8
Bottom
 62
7
370
0
  6
CONTINUOUS
100
AcDbCircle
 10
30.4361801717798137
 20
-136.9661296646699498
 30
0.0
 40
1.5
100
AcDbArc
 50
44.9999999999989413
 51
225.0000000000003695
  0
LINE
  5
144
100
AcDbEntity
100
AcDbLine
  8
Bottom
 62
256
370
-1
  6
ByLayer
 10
31.4968403435596542
 20
-135.9054694928901483
 30
0.0
 11
92.7828633695847032
 21
-135.9054694928901483
 31
0.0
  0
ARC
  5
145
100
AcDbEntity
  8
Bottom
 62
7
370
0
  6
CONTINUOUS
100
AcDbCircle
 10
93.8435235413644762
 20
-136.9661296646699498
 30
0.0
 40
1.5
100
AcDbArc
 50
315.000000000000739
 51
134.9999999999992326
  0
LINE
  5
146
100
AcDbEntity
100
AcDbLine
  8
Bottom
 62
256
370
-1
  6
ByLayer
 10
94.904183713144306
 20
-140.9054694928901483
 30
0.0
 11
94.904183713144306
 21
-138.0267898364497512
 31
0.0
  0
LINE
  5
147
100
AcDbEntity
100
AcDbLine
  8
Bottom
 62
256
370
-1
  6
ByLayer
 10
122.0255040567039657
 20
-120.9054694928901768
 30
0.0
 11
124.904183713144306
 21
-120.9054694928901768
 31
0.0
  0
ARC
  5
148
100
AcDbEntity
  8
Bottom
 62
7
370
0
  6
CONTINUOUS
100
AcDbCircle
 10
120.9648438849241359
 20
-119.8448093211103611
 30
0.0
 40
1.5
100
AcDbArc
 50
135.0000000000034674
 51
315.0000000000003979
  0
LINE
  5
149
100
AcDbEntity
100
AcDbLine
  8
Bottom
 62
256
370
-1
  6
ByLayer
 10
119.9041837131443202
 20
-83.0267898364497512
 30
0.0
 11
119.904183713144306
 21
-118.7841491493306592
 31
0.0
  0
ARC
  5
14A
100
AcDbEntity
  8
Bottom
 62
7
370
0
  6
CONTINUOUS
100
AcDbCircle
 10
120.9648438849241359
 20
-81.9661296646699213
 30
0.0
 40
1.5
100
AcDbArc
 50
44.9999999999996092
 51
225.0000000000003695
  0
LINE
  5
14B
100
AcDbEntity
100
AcDbLine
  8
Bottom
 62
256
370
-1
  6
ByLayer
 10
122.0255040567039657
 20
-80.9054694928901057
 30
0.0
 11
124.904183713144306
 21
-80.9054694928901057
 31
0.0
  0
LINE
  5
14C
100
AcDbEntity
100
AcDbLine
  8
microswitch support
 62
256
370
-1
  6
ByLayer
 10
1.8755200000000041
 20
-5.4070771592449436
 30
0.0
 11
1.8755200000000083
 21
-31.169171765211523
 31
0.0
  0
LINE
  5
14D
100
AcDbEntity
100
AcDbLine
  8
microswitch support
 62
256
370
-1
  6
ByLayer
 10
1.8755200000000083
 20
-31.169171765211523
 30
0.0
 11
45.2196200502687518
 21
-31.169171765211523
 31
0.0
  0
LINE
  5
14E
100
AcDbEntity
100
AcDbLine
  8
microswitch support
 62
256
370
-1
  6
ByLayer
 10
1.8755200000000041
 20
-5.4070771592449436
 30
0.0
 11
27.7710769500903538
 21
-5.4070771592449436
 31
0.0
  0
ARC
  5
14F
100
AcDbEntity
  8
microswitch support
 62
256
370
-1
  6
ByLayer
100
AcDbCircle
 10
27.7710769500903538
 20
-10.4070771592449436
 30
0.0
 40
5.0
100
AcDbArc
 50
51.8000000000000256
 51
90.0
  0
LINE
  5
150
100
AcDbEntity
100
AcDbLine
  8
microswitch support
 62
256
370
-1
  6
ByLayer
 10
43.3116620270565207
 20
-16.273830152572895
 30
0.0
 11
30.8631189268781227
 21
-6.4777926933679328
 31
0.0
  0
LINE
  5
151
100
AcDbEntity
100
AcDbLine
  8
microswitch support
 62
256
370
-1
  6
ByLayer
 10
45.2196200502687518
 20
-31.169171765211523
 30
0.0
 11
45.2196200502687518
 21
-20.2031146184499057
 31
0.0
  0
ARC
  5
152
100
AcDbEntity
  8
microswitch support
 62
256
370
-1
  6
ByLayer
100
AcDbCircle
 10
40.2196200502687518
 20
-20.2031146184499057
 30
0.0
 40
5.0
100
AcDbArc
 50
0.0
 51
51.8000000000000256
  0
CIRCLE
  5
153
100
AcDbEntity
100
AcDbCircle
  8
microswitch support
 62
256
370
-1
  6
ByLayer
 10
36.7103040701621097
 20
-18.0778034090366191
 30
0.0
 40
1.0
  0
CIRCLE
  5
154
100
AcDbEntity
100
AcDbCircle
  8
microswitch support
 62
256
370
-1
  6
ByLayer
 10
36.7103040701621097
 20
-18.0778034090366191
 30
0.0
 40
1.0
  0
CIRCLE
  5
155
100
AcDbEntity
100
AcDbCircle
  8
MicroSwitch
 62
256
370
-1
  6
ByLayer
 10
31.2093058179342897
 20
-13.7489446415337451
 30
0.0
 40
1.0
  0
CIRCLE
  5
156
100
AcDbEntity
100
AcDbCircle
  8
microswitch support
 62
256
370
-1
  6
ByLayer
 10
31.2093058179342897
 20
-13.7489446415337451
 30
0.0
 40
1.0
  0
LINE
  5
157
100
AcDbEntity
100
AcDbLine
  8
microswitch support
 62
256
370
-1
  6
ByLayer
 10
-92.2914959118354119
 20
-111.802432433416314
 30
0.0
 11
-92.2914959118354119
 21
-137.564527039382881
 31
0.0
  0
LINE
  5
158
100
AcDbEntity
100
AcDbLine
  8
microswitch support
 62
256
370
-1
  6
ByLayer
 10
-92.2914959118354119
 20
-137.564527039382881
 30
0.0
 11
-48.9473958615666476
 21
-137.564527039382881
 31
0.0
  0
LINE
  5
159
100
AcDbEntity
100
AcDbLine
  8
microswitch support
 62
256
370
-1
  6
ByLayer
 10
-92.2914959118354119
 20
-111.802432433416314
 30
0.0
 11
-66.3959389617450455
 21
-111.802432433416314
 31
0.0
  0
ARC
  5
15A
100
AcDbEntity
  8
microswitch support
 62
256
370
-1
  6
ByLayer
100
AcDbCircle
 10
-66.3959389617450455
 20
-116.802432433416314
 30
0.0
 40
5.0
100
AcDbArc
 50
51.8000000000000256
 51
90.0
  0
LINE
  5
15B
100
AcDbEntity
100
AcDbLine
  8
microswitch support
 62
256
370
-1
  6
ByLayer
 10
-50.8553538847788928
 20
-122.6691854267442636
 30
0.0
 11
-63.3038969849572908
 21
-112.8731479675392961
 31
0.0
  0
LINE
  5
15C
100
AcDbEntity
100
AcDbLine
  8
microswitch support
 62
256
370
-1
  6
ByLayer
 10
-48.9473958615666476
 20
-137.564527039382881
 30
0.0
 11
-48.9473958615666476
 21
-126.5984698926212815
 31
0.0
  0
ARC
  5
15D
100
AcDbEntity
  8
microswitch support
 62
256
370
-1
  6
ByLayer
100
AcDbCircle
 10
-53.9473958615666476
 20
-126.5984698926212815
 30
0.0
 40
5.0
100
AcDbArc
 50
0.0
 51
51.8000000000000256
  0
CIRCLE
  5
15E
100
AcDbEntity
100
AcDbCircle
  8
microswitch support
 62
256
370
-1
  6
ByLayer
 10
-57.4567118416733109
 20
-124.4731586832079984
 30
0.0
 40
1.0
  0
CIRCLE
  5
15F
100
AcDbEntity
100
AcDbCircle
  8
microswitch support
 62
256
370
-1
  6
ByLayer
 10
-57.4567118416733109
 20
-124.4731586832079984
 30
0.0
 40
1.0
  0
CIRCLE
  5
160
100
AcDbEntity
100
AcDbCircle
  8
microswitch support
 62
256
370
-1
  6
ByLayer
 10
-62.9577100939011274
 20
-120.144299915705119
 30
0.0
 40
1.0
  0
LINE
  5
161
100
AcDbEntity
100
AcDbLine
  8
servo Support
 62
256
370
-1
  6
ByLayer
 10
-97.9946801674514205
 20
-49.3142621842704116
 30
0.0
 11
-85.9946801674514205
 21
-49.3142621842704116
 31
0.0
  0
LINE
  5
162
100
AcDbEntity
100
AcDbLine
  8
servo Support
 62
256
370
-1
  6
ByLayer
 10
-83.9946801674514205
 20
-51.3142621842704116
 30
0.0
 11
-83.9946801674514205
 21
-69.3142621842704045
 31
0.0
  0
ARC
  5
163
100
AcDbEntity
  8
servo Support
 62
256
370
-1
  6
ByLayer
100
AcDbCircle
 10
-85.9946801674514205
 20
-51.3142621842704116
 30
0.0
 40
2.0
100
AcDbArc
 50
0.0
 51
90.0
  0
CIRCLE
  5
164
100
AcDbEntity
100
AcDbCircle
  8
servo Support
 62
256
370
-1
  6
ByLayer
 10
-88.2446801674514205
 20
-54.3142621842704045
 30
0.0
 40
1.5
  0
CIRCLE
  5
165
100
AcDbEntity
100
AcDbCircle
  8
servo Support
 62
256
370
-1
  6
ByLayer
 10
-88.2446801674514205
 20
-64.3142621842704045
 30
0.0
 40
1.5
  0
CIRCLE
  5
166
100
AcDbEntity
100
AcDbCircle
  8
servo Support
 62
256
370
-1
  6
ByLayer
 10
-37.2446801674514489
 20
-64.3142621842704045
 30
0.0
 40
1.5
  0
CIRCLE
  5
167
100
AcDbEntity
100
AcDbCircle
  8
servo Support
 62
256
370
-1
  6
ByLayer
 10
-37.2446801674514489
 20
-54.3142621842704045
 30
0.0
 40
1.5
  0
LINE
  5
168
100
AcDbEntity
100
AcDbLine
  8
servo Support
 62
256
370
-1
  6
ByLayer
 10
-41.4946801674514205
 20
-51.3142621842704116
 30
0.0
 11
-41.4946801674514205
 21
-69.3142621842704045
 31
0.0
  0
ARC
  5
169
100
AcDbEntity
  8
servo Support
 62
256
370
-1
  6
ByLayer
100
AcDbCircle
 10
-39.4946801674514205
 20
-51.3142621842704116
 30
0.0
 40
2.0
100
AcDbArc
 50
90.0
 51
180.0
  0
LINE
  5
16A
100
AcDbEntity
100
AcDbLine
  8
servo Support
 62
256
370
-1
  6
ByLayer
 10
-39.4946801674514205
 20
-49.3142621842704116
 30
0.0
 11
-35.4946801674514205
 21
-49.3142621842704187
 31
0.0
  0
ARC
  5
16B
100
AcDbEntity
  8
servo Support
 62
256
370
-1
  6
ByLayer
100
AcDbCircle
 10
-35.4946801674514205
 20
-51.3142621842704187
 30
0.0
 40
2.0
100
AcDbArc
 50
0.0
 51
90.0
  0
LINE
  5
16C
100
AcDbEntity
100
AcDbLine
  8
servo Support
 62
256
370
-1
  6
ByLayer
 10
-97.9946801674514205
 20
-49.3142621842704116
 30
0.0
 11
-97.9946801674514205
 21
-100.4834339494819346
 31
0.0
  0
LINE
  5
16D
100
AcDbEntity
100
AcDbLine
  8
servo Support
 62
256
370
-1
  6
ByLayer
 10
-97.9946801674514205
 20
-100.4834339494819346
 30
0.0
 11
-33.4946801674514205
 21
-100.4834339494819346
 31
0.0
  0
LINE
  5
16E
100
AcDbEntity
100
AcDbLine
  8
servo Support
 62
256
370
-1
  6
ByLayer
 10
-33.4946801674514205
 20
-51.3142621842704187
 30
0.0
 11
-33.4946801674514205
 21
-100.4834339494819346
 31
0.0
  0
LINE
  5
16F
100
AcDbEntity
100
AcDbLine
  8
servo Support
 62
256
370
-1
  6
ByLayer
 10
-83.9946801674514205
 20
-69.3142621842704045
 30
0.0
 11
-41.4946801674514205
 21
-69.3142621842704045
 31
0.0
  0
LINE
  5
170
100
AcDbEntity
100
AcDbLine
  8
Side
 62
256
370
-1
  6
ByLayer
 10
188.2691858260028823
 20
-133.1659418668784554
 30
0.0
 11
253.797849539147137
 21
-133.1659418668784554
 31
0.0
  0
LINE
  5
171
100
AcDbEntity
100
AcDbLine
  8
Side
 62
256
370
-1
  6
ByLayer
 10
158.2691858260028823
 20
-113.1659418668784554
 30
0.0
 11
158.2691858260028823
 21
-128.1659418668784554
 31
0.0
  0
LINE
  5
172
100
AcDbEntity
100
AcDbLine
  8
Side
 62
256
370
-1
  6
ByLayer
 10
158.2691858260028539
 20
-59.4967701016669253
 30
0.0
 11
158.2691858260028539
 21
-79.4967701016669253
 31
0.0
  0
LINE
  5
173
100
AcDbEntity
100
AcDbLine
  8
Side
 62
256
370
-1
  6
ByLayer
 10
283.797849539147137
 20
-128.1659418668784554
 30
0.0
 11
283.797849539147137
 21
-113.1659418668784554
 31
0.0
  0
LINE
  5
174
100
AcDbEntity
100
AcDbLine
  8
Side
 62
256
370
-1
  6
ByLayer
 10
283.797849539147137
 20
-79.4967701016669253
 30
0.0
 11
283.797849539147137
 21
-59.4967701016669253
 31
0.0
  0
LINE
  5
175
100
AcDbEntity
100
AcDbLine
  8
Side
 62
256
370
-1
  6
ByLayer
 10
158.2691858260028539
 20
-59.4967701016669253
 30
0.0
 11
188.2691858260028539
 21
-59.4967701016669253
 31
0.0
  0
LINE
  5
176
100
AcDbEntity
100
AcDbLine
  8
Side
 62
256
370
-1
  6
ByLayer
 10
253.797849539147137
 20
-59.4967701016669253
 30
0.0
 11
283.797849539147137
 21
-59.4967701016669253
 31
0.0
  0
CIRCLE
  5
177
100
AcDbEntity
100
AcDbCircle
  8
Side
 62
256
370
-1
  6
ByLayer
 10
281.297849539147137
 20
-61.9967701016669253
 30
0.0
 40
1.0
  0
MTEXT
  5
178
100
AcDbEntity
100
AcDbMText
  8
Side
 62
256
370
-1
  6
ByLayer
 10
198.7114347839987261
 20
-101.8833579518740891
 30
0.0
 40
5.0
 41
100.0
 71
1
 72
2
  1
Side\~x\~2
  7
normallatin1
 50
0.0
 73
0
 44
1.0
  0
LINE
  5
179
100
AcDbEntity
100
AcDbLine
  8
Top
 62
256
370
-1
  6
ByLayer
 10
157.9106983427514024
 20
118.9777666166583003
 30
0.0
 11
157.9106983427514024
 21
133.9777666166583003
 31
0.0
  0
LINE
  5
17A
100
AcDbEntity
100
AcDbLine
  8
Top
 62
256
370
-1
  6
ByLayer
 10
187.9106983427514024
 20
138.9777666166583003
 30
0.0
 11
203.0757457251423261
 21
138.9777666166583003
 31
0.0
  0
LINE
  5
17B
100
AcDbEntity
100
AcDbLine
  8
Top
 62
256
370
-1
  6
ByLayer
 10
157.9106983427514024
 20
63.9777666166583074
 30
0.0
 11
157.9106983427514024
 21
78.9777666166583003
 31
0.0
  0
LINE
  5
17C
100
AcDbEntity
100
AcDbLine
  8
Top
 62
256
370
-1
  6
ByLayer
 10
203.0757457251423261
 20
58.9777666166583074
 30
0.0
 11
203.0757457251423261
 21
138.9777666166583003
 31
0.0
  0
LINE
  5
17D
100
AcDbEntity
100
AcDbLine
  8
Top
 62
256
370
-1
  6
ByLayer
 10
187.9106983427514024
 20
58.9777666166583074
 30
0.0
 11
203.0757457251423261
 21
58.9777666166583074
 31
0.0
  0
ARC
  5
17E
100
AcDbEntity
  8
Top
 62
7
370
0
  6
CONTINUOUS
100
AcDbCircle
 10
161.8500381709715725
 20
117.9171064448784847
 30
0.0
 40
1.5
100
AcDbArc
 50
315.0000000000057412
 51
135.0000000000003979
  0
LINE
  5
17F
100
AcDbEntity
100
AcDbLine
  8
Top
 62
256
370
-1
  6
ByLayer
 10
157.9106983427514024
 20
118.9777666166583003
 30
0.0
 11
160.7893779991917427
 21
118.9777666166583003
 31
0.0
  0
LINE
  5
180
100
AcDbEntity
100
AcDbLine
  8
Top
 62
256
370
-1
  6
ByLayer
 10
157.9106983427514024
 20
133.9777666166583003
 30
0.0
 11
185.7893779991917995
 21
133.9777666166583003
 31
0.0
  0
ARC
  5
181
100
AcDbEntity
  8
Top
 62
7
370
0
  6
CONTINUOUS
100
AcDbCircle
 10
186.8500381709715725
 20
135.0384267884381302
 30
0.0
 40
1.5
100
AcDbArc
 50
225.0000000000015348
 51
44.9999999999992326
  0
LINE
  5
182
100
AcDbEntity
100
AcDbLine
  8
Top
 62
256
370
-1
  6
ByLayer
 10
187.9106983427514024
 20
136.0990869602179316
 30
0.0
 11
187.9106983427514024
 21
138.9777666166583003
 31
0.0
  0
LINE
  5
183
100
AcDbEntity
100
AcDbLine
  8
Top
 62
256
370
-1
  6
ByLayer
 10
187.9106983427514024
 20
58.9777666166583074
 30
0.0
 11
187.9106983427514024
 21
61.8564462730986762
 31
0.0
  0
ARC
  5
184
100
AcDbEntity
  8
Top
 62
7
370
0
  6
CONTINUOUS
100
AcDbCircle
 10
186.8500381709715725
 20
62.9171064448784918
 30
0.0
 40
1.5
100
AcDbArc
 50
315.0000000000003979
 51
134.9999999999988631
  0
LINE
  5
185
100
AcDbEntity
100
AcDbLine
  8
Top
 62
256
370
-1
  6
ByLayer
 10
157.9106983427514024
 20
63.9777666166583074
 30
0.0
 11
185.7893779991917995
 21
63.9777666166583074
 31
0.0
  0
LINE
  5
186
100
AcDbEntity
100
AcDbLine
  8
Top
 62
256
370
-1
  6
ByLayer
 10
157.9106983427514024
 20
78.9777666166583003
 30
0.0
 11
160.7893779991917711
 21
78.9777666166583003
 31
0.0
  0
ARC
  5
187
100
AcDbEntity
  8
Top
 62
7
370
0
  6
CONTINUOUS
100
AcDbCircle
 10
161.8500381709715725
 20
80.0384267884381302
 30
0.0
 40
1.5
100
AcDbArc
 50
225.0000000000007674
 51
44.9999999999996092
  0
LINE
  5
188
100
AcDbEntity
100
AcDbLine
  8
Top
 62
256
370
-1
  6
ByLayer
 10
162.9106983427514024
 20
81.0990869602179458
 30
0.0
 11
162.9106983427514024
 21
116.856446273098868
 31
0.0
  0
LINE
  5
189
100
AcDbEntity
100
AcDbLine
  8
Top
 62
256
370
-1
  6
ByLayer
 10
218.9603611097577129
 20
58.8495614884531832
 30
0.0
 11
218.9603611097577129
 21
138.8495614884531619
 31
0.0
  0
LINE
  5
18A
100
AcDbEntity
100
AcDbLine
  8
Top
 62
256
370
-1
  6
ByLayer
 10
218.9603611097577129
 20
138.8495614884531619
 30
0.0
 11
267.8239774405111575
 21
138.8495614884531619
 31
0.0
  0
LINE
  5
18B
100
AcDbEntity
100
AcDbLine
  8
Top
 62
256
370
-1
  6
ByLayer
 10
218.9603611097577129
 20
58.8495614884531832
 30
0.0
 11
267.8239774405111575
 21
58.8495614884531832
 31
0.0
  0
LINE
  5
18C
100
AcDbEntity
100
AcDbLine
  8
Top
 62
256
370
-1
  6
ByLayer
 10
298.8239774405111575
 20
118.8495614884531761
 30
0.0
 11
298.8239774405111575
 21
133.3495614884531619
 31
0.0
  0
LINE
  5
18D
100
AcDbEntity
100
AcDbLine
  8
Top
 62
256
370
-1
  6
ByLayer
 10
298.8239774405111575
 20
78.8495614884531761
 30
0.0
 11
298.8239774405111575
 21
64.3495614884531761
 31
0.0
  0
LINE
  5
18E
100
AcDbEntity
100
AcDbLine
  8
Top
 62
256
370
-1
  6
ByLayer
 10
267.8239774405111575
 20
135.4708818320128216
 30
0.0
 11
267.8239774405111575
 21
138.8495614884531619
 31
0.0
  0
ARC
  5
18F
100
AcDbEntity
  8
Top
 62
7
370
0
  6
CONTINUOUS
100
AcDbCircle
 10
268.8846376122909305
 20
134.4102216602329918
 30
0.0
 40
1.5
100
AcDbArc
 50
135.0000000000007674
 51
314.999999999999261
  0
LINE
  5
190
100
AcDbEntity
100
AcDbLine
  8
Top
 62
256
370
-1
  6
ByLayer
 10
269.9452977840707604
 20
133.3495614884531619
 30
0.0
 11
298.8239774405111575
 21
133.3495614884531619
 31
0.0
  0
LINE
  5
191
100
AcDbEntity
100
AcDbLine
  8
Top
 62
256
370
-1
  6
ByLayer
 10
294.4452977840708172
 20
118.8495614884531761
 30
0.0
 11
298.8239774405111575
 21
118.8495614884531761
 31
0.0
  0
ARC
  5
192
100
AcDbEntity
  8
Top
 62
7
370
0
  6
CONTINUOUS
100
AcDbCircle
 10
293.3846376122909305
 20
117.7889013166733463
 30
0.0
 40
1.5
100
AcDbArc
 50
45.0000000000000071
 51
224.9999999999972999
  0
LINE
  5
193
100
AcDbEntity
100
AcDbLine
  8
Top
 62
256
370
-1
  6
ByLayer
 10
292.3239774405111575
 20
80.9708818320128074
 30
0.0
 11
292.3239774405111575
 21
116.7282411448936159
 31
0.0
  0
ARC
  5
194
100
AcDbEntity
  8
Top
 62
7
370
0
  6
CONTINUOUS
100
AcDbCircle
 10
293.3846376122909305
 20
79.9102216602329918
 30
0.0
 40
1.5
100
AcDbArc
 50
135.0000000000003979
 51
315.0000000000003979
  0
LINE
  5
195
100
AcDbEntity
100
AcDbLine
  8
Top
 62
256
370
-1
  6
ByLayer
 10
294.4452977840708172
 20
78.8495614884531761
 30
0.0
 11
298.8239774405111575
 21
78.8495614884531761
 31
0.0
  0
LINE
  5
196
100
AcDbEntity
100
AcDbLine
  8
Top
 62
256
370
-1
  6
ByLayer
 10
269.9452977840707604
 20
64.3495614884531761
 30
0.0
 11
298.8239774405111575
 21
64.3495614884531761
 31
0.0
  0
ARC
  5
197
100
AcDbEntity
  8
Top
 62
7
370
0
  6
CONTINUOUS
100
AcDbCircle
 10
268.8846376122909305
 20
63.2889013166733463
 30
0.0
 40
1.5
100
AcDbArc
 50
45.0000000000007674
 51
224.9999999999996021
  0
LINE
  5
198
100
AcDbEntity
100
AcDbLine
  8
Top
 62
256
370
-1
  6
ByLayer
 10
267.8239774405111575
 20
58.8495614884531832
 30
0.0
 11
267.8239774405111575
 21
62.2282411448935306
 31
0.0
  0
MTEXT
  5
199
100
AcDbEntity
100
AcDbMText
  8
Top
 62
256
370
-1
  6
ByLayer
 10
236.0427415144563952
 20
87.106382371067923
 30
0.0
 40
5.0
 41
100.0
 71
1
 72
2
  1
Lid
  7
normallatin1
 50
0.0
 73
0
 44
1.0
  0
MTEXT
  5
19A
100
AcDbEntity
100
AcDbMText
  8
Top
 62
256
370
-1
  6
ByLayer
 10
178.101442526558543
 20
115.4937301973534574
 30
0.0
 40
5.0
 41
100.0
 71
1
 72
2
  1
Top
  7
normallatin1
 50
0.0
 73
0
 44
1.0
  0
ARC
  5
19B
100
AcDbEntity
  8
Side
 62
7
370
0
  6
CONTINUOUS
100
AcDbCircle
 10
162.208525654223024
 20
-80.5574302734467409
 30
0.0
 40
1.5
100
AcDbArc
 50
315.0000000000003979
 51
135.0000000000003979
  0
LINE
  5
19C
100
AcDbEntity
100
AcDbLine
  8
Side
 62
256
370
-1
  6
ByLayer
 10
158.2691858260028539
 20
-79.4967701016669253
 30
0.0
 11
161.1478654824431942
 21
-79.4967701016669253
 31
0.0
  0
ARC
  5
19D
100
AcDbEntity
  8
Side
 62
7
370
0
  6
CONTINUOUS
100
AcDbCircle
 10
189.3298459977826838
 20
-63.4361099298871096
 30
0.0
 40
1.5
100
AcDbArc
 50
135.0000000000003979
 51
315.0000000000003979
  0
LINE
  5
19E
100
AcDbEntity
100
AcDbLine
  8
Side
 62
256
370
-1
  6
ByLayer
 10
188.2691858260028539
 20
-59.4967701016669253
 30
0.0
 11
188.2691858260028539
 21
-62.375449758107294
 31
0.0
  0
LINE
  5
19F
100
AcDbEntity
100
AcDbLine
  8
Side
 62
256
370
-1
  6
ByLayer
 10
163.2691858260028539
 20
-81.6180904452265565
 30
0.0
 11
163.2691858260028539
 21
-111.0446215233188525
 31
0.0
  0
ARC
  5
1A0
100
AcDbEntity
  8
Side
 62
7
370
0
  6
CONTINUOUS
100
AcDbCircle
 10
162.208525654223024
 20
-112.1052816950986397
 30
0.0
 40
1.5
100
AcDbArc
 50
224.9999999999996021
 51
44.999999999998856
  0
LINE
  5
1A1
100
AcDbEntity
100
AcDbLine
  8
Side
 62
256
370
-1
  6
ByLayer
 10
158.2691858260028823
 20
-113.1659418668784554
 30
0.0
 11
161.1478654824431942
 21
-113.1659418668784554
 31
0.0
  0
LINE
  5
1A2
100
AcDbEntity
100
AcDbLine
  8
Side
 62
256
370
-1
  6
ByLayer
 10
158.2691858260028823
 20
-128.1659418668784554
 30
0.0
 11
186.1478654824431658
 21
-128.1659418668784554
 31
0.0
  0
ARC
  5
1A3
100
AcDbEntity
  8
Side
 62
7
370
0
  6
CONTINUOUS
100
AcDbCircle
 10
187.2085256542230525
 20
-129.2266020386582568
 30
0.0
 40
1.5
100
AcDbArc
 50
315.000000000000739
 51
135.0000000000023022
  0
LINE
  5
1A4
100
AcDbEntity
100
AcDbLine
  8
Side
 62
256
370
-1
  6
ByLayer
 10
188.2691858260028823
 20
-130.2872622104380582
 30
0.0
 11
188.2691858260028823
 21
-133.1659418668784554
 31
0.0
  0
LINE
  5
1A5
100
AcDbEntity
100
AcDbLine
  8
Side
 62
256
370
-1
  6
ByLayer
 10
255.9191698827067967
 20
-128.1659418668784554
 30
0.0
 11
283.797849539147137
 21
-128.1659418668784554
 31
0.0
  0
ARC
  5
1A6
100
AcDbEntity
  8
Side
 62
7
370
0
  6
CONTINUOUS
100
AcDbCircle
 10
254.8585097109269668
 20
-129.2266020386582568
 30
0.0
 40
1.5
100
AcDbArc
 50
44.9999999999992326
 51
224.9999999999992326
  0
LINE
  5
1A7
100
AcDbEntity
100
AcDbLine
  8
Side
 62
256
370
-1
  6
ByLayer
 10
253.797849539147137
 20
-133.1659418668784554
 30
0.0
 11
253.797849539147137
 21
-130.2872622104380582
 31
0.0
  0
LINE
  5
1A8
100
AcDbEntity
100
AcDbLine
  8
Side
 62
256
370
-1
  6
ByLayer
 10
280.9191698827067967
 20
-113.1659418668784554
 30
0.0
 11
283.797849539147137
 21
-113.1659418668784554
 31
0.0
  0
ARC
  5
1A9
100
AcDbEntity
  8
Side
 62
7
370
0
  6
CONTINUOUS
100
AcDbCircle
 10
279.8585097109269668
 20
-112.1052816950986397
 30
0.0
 40
1.5
100
AcDbArc
 50
135.0000000000003979
 51
315.0000000000003979
  0
LINE
  5
1AA
100
AcDbEntity
100
AcDbLine
  8
Side
 62
256
370
-1
  6
ByLayer
 10
278.797849539147137
 20
-111.0446215233188241
 30
0.0
 11
278.797849539147137
 21
-81.6180904452265281
 31
0.0
  0
ARC
  5
1AB
100
AcDbEntity
  8
Side
 62
7
370
0
  6
CONTINUOUS
100
AcDbCircle
 10
279.8585097109269668
 20
-80.5574302734467409
 30
0.0
 40
1.5
100
AcDbArc
 50
44.9999999999996092
 51
224.9999999999988631
  0
LINE
  5
1AC
100
AcDbEntity
100
AcDbLine
  8
Side
 62
256
370
-1
  6
ByLayer
 10
280.9191698827067967
 20
-79.4967701016669253
 30
0.0
 11
283.797849539147137
 21
-79.4967701016669253
 31
0.0
  0
LINE
  5
1AD
100
AcDbEntity
100
AcDbLine
  8
Side
 62
256
370
-1
  6
ByLayer
 10
253.797849539147137
 20
-62.375449758107294
 30
0.0
 11
253.797849539147137
 21
-59.4967701016669253
 31
0.0
  0
ARC
  5
1AE
100
AcDbEntity
  8
Side
 62
7
370
0
  6
CONTINUOUS
100
AcDbCircle
 10
252.7371893673673071
 20
-63.4361099298871096
 30
0.0
 40
1.5
100
AcDbArc
 50
224.9999999999980673
 51
44.9999999999996092
  0
LINE
  5
1AF
100
AcDbEntity
100
AcDbLine
  8
Side
 62
256
370
-1
  6
ByLayer
 10
190.3905061695625136
 20
-64.4967701016669253
 30
0.0
 11
251.6765291955874204
 21
-64.4967701016669253
 31
0.0
  0
CIRCLE
  5
1B0
100
AcDbEntity
100
AcDbCircle
  8
Top
 62
256
370
-1
  6
ByLayer
 10
185.4106983427514024
 20
74.9777666166583003
 30
0.0
 40
3.25
  0
MTEXT
  5
1B1
100
AcDbEntity
100
AcDbMText
  8
Top
 62
256
370
-1
  6
ByLayer
 10
178.1899923861232935
 20
80.0429484621517275
 30
0.0
 40
5.0
 41
100.0
 71
1
 72
2
  1
OFF
  7
normallatin1
 50
270.0
 73
0
 44
1.0
  0
MTEXT
  5
1B2
100
AcDbEntity
100
AcDbMText
  8
Top
 62
256
370
-1
  6
ByLayer
 10
198.0171969165014332
 20
79.003000056776628
 30
0.0
 40
5.0
 41
100.0
 71
1
 72
2
  1
ON
  7
normallatin1
 50
270.0
 73
0
 44
1.0
  0
ENDSEC
  0
SECTION
  2
OBJECTS
  0
DICTIONARY
  5
C
100
AcDbDictionary
280
0
281
1
  3
ACAD_GROUP
350
D
  3
ACAD_LAYOUT
350
1A
  3
ACAD_MLINESTYLE
350
17
  3
ACAD_PLOTSETTINGS
350
19
  3
ACAD_PLOTSTYLENAME
350
E
  3
AcDbVariableDictionary
350
1B3
  0
DICTIONARY
  5
D
100
AcDbDictionary
280
0
281
1
  0
ACDBDICTIONARYWDFLT
  5
E
100
AcDbDictionary
281
1
  3
Normal
350
F
100
AcDbDictionaryWithDefault
340
F
  0
ACDBPLACEHOLDER
  5
F
  0
DICTIONARY
  5
17
100
AcDbDictionary
280
0
281
1
  3
Standard
350
18
  0
MLINESTYLE
  5
18
100
AcDbMlineStyle
  2
STANDARD
 70
0
  3

 62
256
 51
90.0
 52
90.0
 71
2
 49
0.5
 62
256
  6
BYLAYER
 49
-0.5
 62
256
  6
BYLAYER
  0
DICTIONARY
  5
19
100
AcDbDictionary
280
0
281
1
  0
DICTIONARY
  5
1A
100
AcDbDictionary
281
1
  3
Layout1
350
1E
  3
Layout2
350
26
  3
Model
350
22
  0
LAYOUT
  5
1E
100
AcDbPlotSettings
  1

  2
C:\Program Files\AutoCAD 2002\plotters\DWF ePlot (optimized for plotting).pc3
  4

  6

 40
0.0
 41
0.0
 42
0.0
 43
0.0
 44
0.0
 45
0.0
 46
0.0
 47
0.0
 48
0.0
 49
0.0
140
0.0
141
0.0
142
1.0
143
1.0
 70
688
 72
0
 73
0
 74
5
  7

 75
16
147
1.0
148
0.0
149
0.0
100
AcDbLayout
  1
Layout1
 70
1
 71
1
 10
0.0
 20
0.0
 11
420.0
 21
297.0
 12
0.0
 22
0.0
 32
0.0
 14
100000000000000000000.0
 24
100000000000000000000.0
 34
100000000000000000000.0
 15
-100000000000000000000.0
 25
-100000000000000000000.0
 35
-100000000000000000000.0
146
0.0
 13
0.0
 23
0.0
 33
0.0
 16
1.0
 26
0.0
 36
0.0
 17
0.0
 27
1.0
 37
0.0
 76
0
330
1B
  0
LAYOUT
  5
22
100
AcDbPlotSettings
  1

  2
C:\Program Files\AutoCAD 2002\plotters\DWF ePlot (optimized for plotting).pc3
  4

  6

 40
0.0
 41
0.0
 42
0.0
 43
0.0
 44
0.0
 45
0.0
 46
0.0
 47
0.0
 48
0.0
 49
0.0
140
0.0
141
0.0
142
1.0
143
1.0
 70
1712
 72
0
 73
0
 74
0
  7

 75
0
147
1.0
148
0.0
149
0.0
100
AcDbLayout
  1
Model
 70
1
 71
0
 10
0.0
 20
0.0
 11
12.0
 21
9.0
 12
0.0
 22
0.0
 32
0.0
 14
0.0
 24
0.0
 34
0.0
 15
0.0
 25
0.0
 35
0.0
146
0.0
 13
0.0
 23
0.0
 33
0.0
 16
1.0
 26
0.0
 36
0.0
 17
0.0
 27
1.0
 37
0.0
 76
0
330
1F
  0
LAYOUT
  5
26
100
AcDbPlotSettings
  1

  2
C:\Program Files\AutoCAD 2002\plotters\DWF ePlot (optimized for plotting).pc3
  4

  6

 40
0.0
 41
0.0
 42
0.0
 43
0.0
 44
0.0
 45
0.0
 46
0.0
 47
0.0
 48
0.0
 49
0.0
140
0.0
141
0.0
142
1.0
143
1.0
 70
688
 72
0
 73
0
 74
5
  7

 75
16
147
1.0
148
0.0
149
0.0
100
AcDbLayout
  1
Layout2
 70
1
 71
2
 10
0.0
 20
0.0
 11
12.0
 21
9.0
 12
0.0
 22
0.0
 32
0.0
 14
0.0
 24
0.0
 34
0.0
 15
0.0
 25
0.0
 35
0.0
146
0.0
 13
0.0
 23
0.0
 33
0.0
 16
1.0
 26
0.0
 36
0.0
 17
0.0
 27
1.0
 37
0.0
 76
0
330
23
  0
DICTIONARY
  5
1B3
100
AcDbDictionary
281
1
  3
DIMASSOC
350
1B5
  3
HIDETEXT
350
1B4
  0
DICTIONARYVAR
  5
1B4
100
DictionaryVariables
280
0
  1
2
  0
DICTIONARYVAR
  5
1B5
100
DictionaryVariables
280
0
  1
1
  0
ENDSEC
  0
EOF
